Song name
# A B C D E F G H I J K L M N O P Q R S T U V W X Y Z

Anchors - Stay Frosty tab

Stay Frosty
Anchors
Bad Juju

figure rhythm/strumming pattern yo self. quite easy.
standard tuning

---------------|
---------------|
--6------------|
---------------|play this for a good while
--4------------|
---------------|

------------------------|
------------------------|
--6-----8-9--2----4-----|
----x14--------x8---x8--|
--4-----6-7--0----2-----|
------------------------|

guitar 2:
------------------------|
--8---9--6--11--9--6----|
------------------------|
--6---7--4--9---7--4----|
------------------------|
------------------------|

------------------------|
------------------------|
--6-----9--4/6/8--------|
--6--7--9---------------|
--4--7--7--2/4/6--------|
-----5------------------|

------------------------|
------------------------|
--6--4--9--4/9\8--------|
--6--4--9---------------|
--4--2--7--2/7\6--------|
------------------------|

palm muted bit
------------------------|
------------------------|
------------------------|
--6-6-4-98--2-2-4-98----|
--4-4-2-76--0-0-2-76----|
------------------------|

------------------------|
-----------------9------|
------------------------|
--6-6-4-98--2-2--6------|
--4-4-2-76--0-0---------|
------------------------|

------------------------|
------------------------|
--6-----9--4/6/8--------|
--6--7--9---------------|
--4--7--7--2/4/6--------|
-----5------------------|

------------------------|
------------------------|
--6--4--9--4/9\8--------|
--6--4--9---------------|
--4--2--7--2/7\6--------|
------------------------|

------------------------|
------------------------|
--6-----9--4/6/8--------|
--6--7--9---------------|
--4--7--7--2/4/6--------|
-----5------------------|

------------------------|
------------------------|
--6--4--9--4/9----------|
--6--4--9---------------|
--4--2--7--2/7----------|
------------------------|

------------------------|
------------------------|
--2---------------------|
--2---------------------|
--0---------------------|
------------------------|

pretty crappy tab, but you get the picture =)

http://anchors.bandcamp.com/
Tap to rate this tab
 
# A B C D E F G H I J K L M N O P Q R S T U V W X Y Z