Song name
# A B C D E F G H I J K L M N O P Q R S T U V W X Y Z

Ancient Rites - Blasfemia Eternal tab

Song : Blasfemia Eternal
Artist : Ancient Rites
Genre : Pagan Black Metal
Album : Blasfemia Eternal
Year : 1996
Tuning : Normal (EADGBe)
Tabbed By : Valenten

Comments :
  * Since the melody is being played with a pick, Ancient Rites uses two guitars for 
song. However I've merged them together.

Riff A
e|----------------------|-------------5---5---|
B|--5-7-8-5-3/5-5---5---|--5-7-8-5-3\---------|
G|----------------------|---------------------|
D|----------------------|---------------------|
A|----------------------|---------------------|
E|--------------0---0---|--0-0-0-0-0--0---0---|

Riff B
e|--7--5\3-2-3-------------|--7--5\3-2-3----------------|
B|--------------5-7-8--3---|--------------5-7-8/10-10---|
G|-------------------------|----------------------------|
D|-------------------------|----------------------------|
A|-------------------------|----------------------------|
E|--0--0-0-0-0--0-0-0--0---|--0--0-0-0-0--0-0-0-0--0----|


Riff A
e|----------------------|-------------5---5---|
B|--5-7-8-5-3/5-5---5---|--5-7-8-5-3\---------|
G|----------------------|---------------------|
D|----------------------|---------------------|
A|----------------------|---------------------|
E|--0-0-0-0-0-0-0---0---|--0-0-0-0-0--0---0---|

Riff B
e|--7--5\3-2-3-------------|--7--5\3-2-3----------------|
B|--------------5-7-8--3---|--------------5-7-8/10-10---|
G|-------------------------|----------------------------|
D|-------------------------|----------------------------|
A|-------------------------|----------------------------|
E|--0--0-0-0-0--0-0-0--0---|--0--0-0-0-0--0-0-0-0--0----|

Ending
e|---------|
B|--5*-----|
G|---------|
D|---------|
A|---------|
E|--0------|


Symbols meaning :
  2/3 or 3\2 - Slide
  2\         - Slide Out Downwards
  2*         - Let Ring
Tap to rate this tab
# A B C D E F G H I J K L M N O P Q R S T U V W X Y Z