Guitaretab - guitar tabs
Song name
# A B C D E F G H I J K L M N O P Q R S T U V W X Y Z

Ancient - Night Visit tab

#----------------------------------PLEASE NOTE---------------------------------#
#This file is the author's own work and represents their interpretation of the #
#song. You may only use this file for private study, scholarship, or research. #
#------------------------------------------------------------------------------#



Tabbed by Temo Antichrist


All right brothers,here's a tab for a really great melodic black metal song,it's very 
cool,and it's nowhere on the net,so I decided to tab it.Unfortunately I'm too lazy to tab 
solo,and some acoustic chords,but then again,I don't give a shit.Enjoy!

D standard tuning

Intro riff:
Sustain the chords for as long as needed.
|-------------------------|
|-------------------------|
|-------------------------|
|-10~----11~----10~----9~-|
|-10~----11~----10~----9~-|
|-8~-----9~-----8~-----7~-|


Then comes a little synth bass and cymbals interlude,afterwards
Before the main riff play this:
Follow the drum beat:
|-2222222222-|
|-2222222222-|
|-0000000000-|

Main riff (awesome one),listen to the record for strumming pattern,I tried to type it 
but still...
t=10,e=11
|-----------------------------------------------------|
|-----------------------------------------------------|
|-----------------------------------------------------|
|-3-333-3-333-t-ttt-t-ttt-e-eee-e-eee-tt-65-555-6-555-|
|-3-333-3-333-t-ttt-t-ttt-e-eee-e-eee-tt-65-555-6-555-|
|-1-111-1-111-8-888-8-888-9-999-9-999-88-43-333-4-333-|

|-----------------------------------------------------|
|-----------------------------------------------------|
|-----------------------------------------------------|
|-3-333-3-333-3-333-3-333-2-222-2-222-2-222-2-222-2---|
|-3-333-3-333-3-333-3-333-2-222-2-222-2-222-2-222-2---|
|-1-111-1-111-1-111-1-111-0-000-0-000-0-000-0-000-0---|

alternate ending of the main riff played on second time insead of E power chord.
|---------------------------------|
|---------------------------------|
|------------------7--------7---|
|----------------7--7----7--7-|
|-3-5-6-5--5--------5-------|
|---------------------------------|

Riff 2:
|-----------------------------------------------------|
|-----------------------------------------------------|
|-----------------------------------------------------|
|-6-6x-------6-6x-------5-5x--------------------------|
|-4-4x-------4-4x-------3-3x--------------------------|
|------0-0-0------0-0-0------3-1-0-1-3-4--3-1-0-1-3-4-|
       . . .      . . .      . . . . . .  . . . . . .
Repeat main riff and riff 2 then play:
[ Tab from: http://www.guitaretab.com/a/ancient/192051.html ]
Riff 3A.Now here are tho chords,strumming pattern is the same with main riff
|---------------------------|
|---------------------------|
|-7--5--10--9--10--8--6-----|
|-7--5--10--9--10--8--6-----|
|-5--3--8---7--8---6--4-----|
|---------------------------|

Riff 3B:
|----------------------------------|
|----------------------------------|
|-10-12--13--7--5---10-9--10--8--6-|
|-10-12--13--7--5---10-9--10--8--6-|
|-8--10--11--5--3---8--7--8---6--4-|
|----------------------------------|

Riff 4:Break.Sustain the power chords
|-------------------|
|-------------------|
|-------------------|
|-6----5-------6--5-|
|-6----5-------6--5-|
|-4----3---6~--4--3-|

Then while lead guitar plays solo,rhythm plays main riff
after repeat riff 3 4 times and on the last time just tremolo pick the route notes.Sorry 
the absense of acoustic chords and solo,like I said I'm too fucking lazy.If someone has 
solo,please post it.Hail Satan

--------------------------------------------------------------------------------

Duration Legend
---------------
W - whole; H - half; Q - quarter; E - 8th; S - 16th; T - 32nd; X - 64th; a - acciaccatura
+ - note tied to previous; . - note dotted; .. - note double dotted
Uncapitalized letters represent notes that are staccato (1/2 duration)
Irregular groupings are notated above the duration line
Duration letters will always appear directly above the note/fret number it represents the
duration for.  Duration letters with no fret number below them represent rests.  Multi-
bar rests are notated in the form Wxn, where n is the number of bars to rest for.  Low
melody durations appear below the staff

Tablature Legend
----------------
 h   - hammer-on
 p   - pull-off
 b   - bend
 pb  - pre-bend
 r   - bend release (if no number after the r, then release immediately)
 /\  - slide into or out of (from/to "nowhere")
 s   - legato slide
 S   - shift slide
 - natural harmonic
[n]  - artificial harmonic
n(n) - tapped harmonic
 ~   - vibrato
 tr  - trill
 T   - tap
 TP  - trem. picking
 PM  - palm muting
\n/  - tremolo bar dip; n = amount to dip
 \n  - tremolo bar down
 n/  - tremolo bar up
/n\  - tremolo bar inverted dip
 =   - hold bend; also acts as connecting device for hammers/pulls
 <> - volume swell (louder/softer)
 x   - on rhythm slash represents muted slash
 o   - on rhythm slash represents single note slash

Misc Legend
-----------
 |  - bar
||  - double bar
||o - repeat start
o|| - repeat end
*|  - double bar (ending)
 :  - bar (freetime)
 $  - Segno
 &  - Coda
Tempo markers -  = BPM(8/16=s8/s16), where s8 = swing 8ths, s16 = swing 16ths

--------------------------------------------------------------------------------

** Generated using Power Tab Editor by Brad Larsen: The Official Power Tab Web Site
Related for Night Visit tab