Song name
# A B C D E F G H I J K L M N O P Q R S T U V W X Y Z

Ancient - Vampirize Natasha tab

ANCIENT - VAMPIRIZE NATASHA
From the album: Mad Grandiose Bloodfiends

Tabbed by: Arto Osterman 3.7.1999
E-mail: thornofsin@hotmail.com


Tuning: Standard


Marking:

Hammer-on: h
Pull-off: p
Palm mute: ...


Riff 1:

|--------------------------------------------------------------------------|
|--------------------------------------------------------------------------|
|--------------------------------------------------------------------------|
|-99999999-88888888-99999999-88888888--88888888-77777777-88888888-77777777-|
|-77777777-77777777-77777777-77777777--66666666-66666666-66666666-66666666-|
|--------------------------------------------------------------------------|


Fill 1:

|--------------------------------------------------------------------------|
|--------------------------------------------------------------------------|
|--------------------------------------------------------------------------|
|--------------------------------------------------------------------------|
|-------7h8-7h8-7h8-------8h9-8h9-8h9-------7h8-7h8-7h8-------4h5-4h5-4h5--|
|-0-000-------------0-000-------------0-000-------------0-000--------------|
    ...               ...               ...               ...


Riff 2: (Fucking fast)

|------------------------------------------------------------------------|
|------------------------------------------------------------------------|
|------------------------------------------------------------------------|
|---------------------------8h9-8h9--------------------------------------|
|-7h8-7h8-8h9-8h9-9h10-9h10---------7h8-7h8-8h9-8h9-9h10-9h10------------|
|-------------------------------------------------------------9h10-9h10--|


Riff 3:

|------------------------------------|
|------------------------------------|
|------------------------------------|
|----------------------9h10p9-8h9p8--|
|-7-5-7-5-7-6--7-5-7-5---------------|
|------------------------------------|


Riff 4:

|------------------------------------|
|------------------------------------|
|------------------------------------|
|------------------------------------|
|-----------5------------------------|
|-7-5-7-5-7----7-5-7-5--3h5p3-2h3p2--|


Any Corrections are welcome...
Tap to rate this tab
# A B C D E F G H I J K L M N O P Q R S T U V W X Y Z