Song name
# A B C D E F G H I J K L M N O P Q R S T U V W X Y Z

Ancient - Ved Trolltjern tab

     VED TROLLTJERN
        by ANCIENT
from album- SVARTALVHEIM

Tuning: e
        B
        Gb
        D
        A
        E

Tab by Sasha. All the chord shapes are correct by the sounds of things.
If something sounds wrong then you are probably out of tune. Remember to
tune down that G string.

Riff 1:
e :---------------------------------------------------------
B :---------------------------------------------------------
Gb:-----------0-------------0-----------0------------0------
D :-------7-------7------7-----7-----7-----7------7-----7---
A :----9--------------9------------9-----------9------------
E :---------------------------------------------------------

e :------------------------------------------------------------------|
B :------------------------------------------------------------------|
Gb:-----------0----------------0----------------0-------------0------|
D :--------9------9--------9-------9--------9-------9------9------9--|
A :---10--------------10---------------10--------------10------------|
E :------------------------------------------------------------------|

		Then play riff 1 again

Riff 2:
                 x4                  x4               x4             x4
e :-----------------|-------------------|---------------|---------------|
B :-----------------|-------------------|---------------|---------------|
Gb:---------0-------|----------0--------|---------0-----|---------0-----|
D :------5-----5----|-------4------4----|------2-----2--|------0-----0--|
A :---7-------------|---5---------------|---3-----------|---2-----------|
E :-----------------|-------------------|---------------|---------------|

		Then play riff 1 twice, followed by riff 2 once.

Riff 3:
I can't remember the exact picking of the notes from here onward, so I have 
just indicted chord shapes. If you are particularly fussy it shouldn't be 
too hard to work it out by listening to the CD, but just any old picking 
style is fine.

          x4     x4
e :-------------------|
B :-------------------|
Gb:-------------------|
D :-----0------0------|
A :----2------3-------|
E :---0------1--------|

		repeat riff 3

Riff 4:
           x4      x4
e :-------------------|
B :-------------------|
Gb:-------------------|
D :------0------0-----|
A :-----3------2------|
E :----3------2-------|

                 repeat riff 4

Riff 5:
            x4    x4
e :--------------------|
B :--------------------|
Gb:--------------------|
D :------3------5------|
A :-----1------3-------|
E :----2------4--------|

               repeat riff 5
Riff 6:
            x4    x4
e :------------------|
B :------------------|
Gb:------------------|
D :-------8-----6----|
A :------6-----4-----|
E :-----7-----5------|

		repeat riff 6

Riff 7:
              x4    x4
e :-------------------|
B :-------------------|
Gb:-------------------|
D :--------11-----9---|
A :-------9------7----|
E :-----10------8-----|

		repeat riff 7

Riff 8:
	      x4    x4
e :--------------------|
B :--------0-----------|
Gb:-------0-------0----|
D :------8-------6-----|
A :-----6-------4------|
E :----7-------5-------|

		This is repeated a couple of times.
		Then play riff 1 twice and play riff 2, playing the last shape of 
		riff 2 with an open Gb and B string for the last strum.
Tap to rate this tab
 
# A B C D E F G H I J K L M N O P Q R S T U V W X Y Z