Song name
# A B C D E F G H I J K L M N O P Q R S T U V W X Y Z

Anciients - One Foot In The Light tab

  -------------------------------------------------------
  Anciients - Heart of oak - One foot in the light (2013)
  -------------------------------------------------------

  Anciients official homepage: http://ancients.ca/
 
  Tabbed by Sleexus from Trondheim, Norway (arntis23@hotmail.com)

  More Anciients guitar tabs coming up in the near future. 

  Tune down 1/2 step:

  Eb, Ab, Db, Gb, Bb, Eb

  m: Middle-finger
  r: Ring-finger
  i: Index
  p: Pinky


  00:09-00:29

 |--5---------8------------------------------------------5--7--8---------|
 |-----5---------10-----9------------6---------5-------------------------|
 |--------5---------9------7------------4---------5----------------------|
 |----------------------9-----9------------6---------7-------------------|
 |-0-------------------------------------------0-------------------------|
 |------------0-------------------4----------------------0---------------|


 |--0--0------------------------------------------0-----3--0h3p0---------|
 |-----0---------3---------0---------0--1--3---1-----1------------0------|
 |--------1---------1---------0----------------0-------------------------|
 |-----------2---------2---------3-------------2-------------------------|
 |---------------2-----------------------------3-------------------------|
 |-----0-------------------3---------------------------------------------|


 |-----2-----3--2h3p2------4---------7---------10---------12-------------|
 |--4-----4------------4------5---------5----------9------9--------------|
 |--4----------------------------4---------4----------9---9--------------|
 |--4--------------------------------------------------------------------|
 |--2--------------------------------------------------------------------|
 |-------------------------0-------------------0-------------------------|

  00:32-01:06

 |---------------------1--------1----------------------------------------|
 |--3--------3------------3--------3-------------------------------------|
 |-----2--------2------------2------------5--------5---------------------|
 |--------3--------3-------------------------7--------7------------------|
 |--0-------------------------------------------7--------7---------------|
 |---------------------1---------------5--5------------------------------|

 |---------------------------------------5--------5------------5-----5---|
 |--8--------8--------6--------6------------6--------6------5------------|
 |-----5--------5--------7--------7------------7------------5-----5------|
 |--------7-----------------7--------7-----------------------------------|
 |-----------------------------------------------------------------------|
 |--0--------------5--5------------------5---------------5--5------------|

 |--------7--------7-------------------------6---------------5-----------|
 |--5--------5--------5-------------------6---------------6--------------|
 |--------------5----------------------7---------------9-----------------|
 |---------------------------------10---------------7--------------------|
 |------------------------------8----------------5-----------------------|
 |-----5--5---------------0--6-------------------------------------------|

                                    Same finger-positions for the next four
                                    chords. Keep the same shape and 
                                    "slide" it up the neck into the next
                                    chord and so forth.

                                       m  r  i  p                                     

|-----------------4--------------3-----------------0--------------0--------|
|--------------4--------------4-----------------3--------------6-----------|
|-----------5--------------7-----------------1--------------4--------------|
|--------8--------------5-----------------3--------------6-----------------|
|-----6--------------3--------------0--2--------------5--------------------|
|--4-----------------------------------------------------------------------|


|--------------0------------------0-----8----------------------------------|
|-----------9-----------------12--------5----------------------------------|
|--------7----------------10------------5----------------------------------|
|-----9---------------12----------------7----------------------------------|
|--8--------------11--------------------x----------------------------------|
|------------------------------------0--5----------------------------------|

Tap to rate this tab
# A B C D E F G H I J K L M N O P Q R S T U V W X Y Z