Song name
# A B C D E F G H I J K L M N O P Q R S T U V W X Y Z

Anciients - Fallin In Line tab

 --------------------------------------------------------
  Anciients - Heart of oak - Falling in line intro (2013)
  -------------------------------------------------------
 
  Tabbed by Sleexus from Trondheim, Norway (arntis23@hotmail.com)

  More Anciients guitar tabs coming up in the near future. 

  Tune down 1/2 step:

  Eb, Ab, Db, Gb, Bb, Eb

  m: Middle-finger
  r: Ring-finger
  i: Index
  p: Pinky

  00:00-00:34

 |--0---0------------------0-----------------------------------0-----------|
 |--2------2------------2-----------------------------3-----------3--------|
 |--4---------4------4-----------------------2-----------2-----------2-----|
 |--2-------------------------------------0-----0-----------0--------------|
 |--0----------------------------------1-----------1-----------------------|
 |---------------0------------0--1--3--------------------------------------|


 |-----------0-----------------0-----------------------------------0-------|
 |--------------2-----------2-----------------------------3-----------3----|
 |--------4--------4-----4-----------------------2-----------2-----------2-|
 |-----2--------------------------------------0-----0-----------0----------|
 |--0--------------------------------------1-----------1-------------------|
 |--------------------0-----------0--1--3----------------------------------|

 |-----------0-----------------0-----------------------------------0-------|
 |--------2-----2-----------2-----------------------------3-----------3----|
 |-----------------4-----4-----------------------2-----------2-----------2-|
 |-----2--------------------------------------0-----0-----------0----------|
 |--0--------------------------------------1-----------1-------------------|
 |--------------------0-----------0--1--3----------------------------------|

 |-----------0-----------------0--------------------------0----------------|
 |--------------2-----------2-----------------------------3----------------|
 |--------4--------4-----4-----------------------2--------2----------------|
 |-----2--------------------------------------0-----0-----0----------------|
 |--0--------------------------------------1-----------1-------------------|
 |--------------------0-----------0--1--3----------------------------------|

 |-----------0-----------------0-----------------------------------0-------|
 |--------------2-----------2-----------------------------3-----------3----|
 |--------4--------4-----4-----------------------2-----------2-----------2-|
 |-----2--------------------------------------0-----0-----------0----------|
 |--0--------------------------------------1-----------1-------------------|
 |--------------------0-----------0--1--3----------------------------------|

 |-----------0-----------------0--------------------------0----------------|
 |--------------2-----------2-----------------------------3----------------|
 |--------4--------4-----4-----------------------2--------2----------------|
 |-----2--------------------------------------0-----0-----0----------------|
 |--0--------------------------------------1-----------1-------------------|
 |--------------------0-----------0--1--3----------------------------------|

  00:34-01:16

  The first three chords use the same fingering.
   
   i   p     m
 |--------------------0-----------------------------------0----------------|
 |-----------6-----------6-----------------------1-----------1-------------|
 |--------0-----0-----------0-----0-----------0-----0-----------0-----0----|
 |-----8-----------8-----------8-----------4-----------4-----------4-------|
 |-------------------------------------------------------------------------|
 |--6--------------------------------0--2----------------------------------|

 |------------------------0------------------------------0-----------------|
 |--------------8------------8------------------------0-----0--------------|
 |-----------0-----0------------0------0-----------2-----------2--0--------|
 |-------10-----------10-----------10-----------4--------------------4--2--|
 |-------------------------------------------------------------------------|
 |--2s8-----------------------------------0--3-----------------------------|

       i  p     m
 |-----------------------0-----------------------------------0-------------|
 |--------------6-----------6-----------------------1-----------1----------|
 |-----------0-----0-----------0-----0-----------0-----0-----------0-----0-|
 |--0-----8-----------8-----------8-----------4-----------4-----------4----|
 |-------------------------------------------------------------------------|
 |-----6--------------------------------0--2-------------------------------|

 |------------------------0------------------------0-----------------------|
 |--------------8------------8------------------3-----3-----2--2--2--------|
 |-----------0-----0------------0------0-----0-----------0--2--2--2--------|
 |-------10-----------10-----------10-----------------------2--------------|
 |----------------------------------------0-----------------0--------------|
 |--2s8--------------------------------------------------------------------|

  00:57-01:16 

 |--------0-----------------------------0-----------------------------------|
 |--2--------2--------------------3--------3--------------------------------|
 |--3--3--------3-----0-----0--------0--------0-----0-----0-----2--2--------|
 |--0-----------------------------------------------0-----0-----0--0--------|
 |-----------------3-----2-----1-----------------------------1--------------|
 |-----------------------------------------------3-----1--------------------|


 |----------0-----------------------------0---------------------------------|
 |--2--2-------2--------------------3--------3------------------------------|
 |--3-----3-------3-----0-----0--------0--------0-----0-----0-----2--2------|
 |--0-------------------------------------------------0-----0-----0--0------|
 |-------------------3-----2-----1-----------------------------1------------|
 |-------------------------------------------------3-----1------------------|


 |----------0-----------------------------0---------------------------------|
 |--2--2-------2--------------------3--------3------------------------------|
 |--3-----3-------3-----0-----0--------0--------0-----0-----0-----2--2------|
 |--0-------------------------------------------------0-----0-----0--0------|
 |-------------------3-----2-----1-----------------------------1------------|
 |-------------------------------------------------3-----1------------------|


 |-----------0--------------------------------------------------------------|
 |--2--2--------2-----------------------------------------------------------|
 |--3-----2--------3--2--2--2-----------------------------------------------|
 |--0-----------------0--0--0-----------------------------------------------|
 |--------------------3--2--1-----------------------------------------------|
 |--------------------------------------------------------------------------|

 
Tap to rate this tab
# A B C D E F G H I J K L M N O P Q R S T U V W X Y Z