Song name
# A B C D E F G H I J K L M N O P Q R S T U V W X Y Z

And Hell Followed With - Mara tab

Tunging: drop A



Its the instrumental Intro of the album Proprioception
so theres just this long, weird screch.tone at the beginning...
but the guitars are still awesome soooo....
heres the tab
emjoy!



Intro
GuitarI+II              play the notes between the clamps with delay if u can
|------------------------------------------------------------------|
|------------------------------------------------------------------|
|------------------------------------------------------------------|
|-1~--------------------------(1-1-0-1)-0~-------------------------|
|-1~------------------------------------0~-------------------------|
|-1~------------------------------------0~-------------------------|

|------------------------------------------------------------------|
|------------------------------------------------------------------|
|------------------------------------------------------------------|
|-1~-----------------------(/5-7/8\7\5)-0~-------------------------|
|-1~------------------------------------0~-------------------------|
|-1~------------------------------------0~-------------------------|

then the bass disappears


Breakdown
           |BAAM heres the bass again!
|----------------------------------------|
|----------------------------------------|
|----------------------------------------|
|-0000---------0000~0000~0000~0000~------|\
|-0000---------0000~0000~0000~0000~------| \
|-0000-----0^--0000~0000~0000~0000~------|  \
  ....         .... .... .... ....           \
                                             /  2x
|----------------------------------------|  /
|----------------------------------------| /
|----------------------------------------|/
|-0000---------0000~0000~0000~0000~0000~-|
|-0000---------0000~0000~0000~0000~0000~-|
|-0000-----0^--0000~0000~0000~0000~0000~-|
  ....         .... .... .... .... ....


very cool riff (i don't know if its right but its sounds so)
|-----------------------------------------|
|-----------------------------------------|
|-----------------------------------------|
|---------------------------------1-0-0-0-|
|---------------------------------1-0-0-0-|\
|-1''-0''-1''-4''-1''-0''-1''-4''-1-0-0-0-| \
                                  . . . .    \
                                              \
|-------------------------------------------| /  2x
|-------------------------------------------|/
|-------------------------------------------|
|---------------------------------------0-0-|
|---------------------------------4*-3*-0-0-|
|-1''-0''-1''-4''-1''-0''-1''-4''-------0-0-|
                                        . .

Bridge (only 1 guitar with sth like a wah)
|------------------------|
|------------------------|
|------------------------|
|------------------------|
|------------------------|
|-0-0-0-0-0-0-0-0-1-0-1^-|
                    .

2. Breakdown (?)
GuitarI
|------------------------|
|------------------------|
|------------------------|
|------------------------|
|------------------------|
|-0-0-----0-0-----1-0-1^-|  4x
                    .

GuitarII
|------------------------|
|------------------------|
|------------------------|
|------------------------|
|------------------------|
|-0-0-0-0-0-0-0-0-1-0-1^-|  4x
                    .

Both
|------------------------|
|------------------------|
|------------------------|
|-1-1-1-1-1-1-1-1-1------|
|-0-0-0-0-0-0-0-0-0------|
|-1-1-1-1-1-1-1-1-1-0-1^-|
  . . . . . . . .   .

and then mainly the same Breakdown as the first one
|----------------------------------------|
|----------------------------------------|
|----------------------------------------|
|-0000---------0000-0000-0000-0000-------|\
|-0000---------0000-0000-0000-0000-------| \
|-0000-----0^--0000-0000-0000-0000-------|  \
  ....         .... .... .... ....           \
                                             /  2x
|----------------------------------------|  /
|----------------------------------------| /
|----------------------------------------|/
|-0000---------0000-0000-0000-0000-0000--|
|-0000---------0000-0000-0000-0000-0000--|
|-0000-----0^--0000-0000-0000-0000-0000--|
  ....         .... .... .... .... ....


thx ;)  Phil Wee (Facebook)


Tap to rate this tab
# A B C D E F G H I J K L M N O P Q R S T U V W X Y Z