And One - Mein Anfang tab

-------------------------------------------------------------------------------
                        Mein Anfang  -  And One
-------------------------------------------------------------------------------
Tabbed by: Martin Messner
Email: bigbonsai@hotmail.de

Tuning: E - Standard

//////////////////////////////////////////////
//                                          //
//  RATING THIS TAB TAKES ABOUT 5 SECONDS   //
//  AND HELPS ME TO IMPROVE MY WORK         //
//                                          //
//////////////////////////////////////////////

Basically, it's just one melody with a couple of variations

  1st                          2nd                 3rd
e|----------------------------|-------------------|----------------------|
B|----------------------------|-------------------|----------------------|
G|-------5---4-4---------5-4--|------5---4--------|------5---4-4---------|
D|---3-2---6-------5-3-2------|--3-2---6------4-5-|--3-2---6-----4-5-3~--|
A|----------------------------|-------------------|----------------------|
E|----------------------------|-------------------|----------------------|

background noises:
e|------------------------------|
B|------------------------------|
G|------------------------------| just play these notes
D|--------------------3-3-8-3---| as you want to
A|------------------------------|
E|--1--1--2--1--1--4----------1-|
Tap to rate this tab
 
# A B C D E F G H I J K L M N O P Q R S T U V W X Y Z