And One - Pimmelmann tab

-------------------------------------------------------------------------------
                        Pimmelmann    -   And One
-------------------------------------------------------------------------------
Tabbed by: Martin Messner
Email: bigbonsai@hotmail.de

youtube: http://www.youtube.com/watch?v=154eAeOInY4

Tuning: E - Standard

//////////////////////////////////////////////
//                                          //
//  RATING THIS TAB TAKES ABOUT 5 SECONDS   //
//  AND HELPS ME TO IMPROVE MY WORK         //
//                                          //
//////////////////////////////////////////////

Maintheme
e|------------------------------------------------------------|
B|------------------------------------------------------------|
G|------------------------------------------------------------|
D|------------------------------------------------------------|
A|---2-2--2-2--2-2--------------------------------------------|
E|-----------------4-4--4-4--4-4-3-3--3-3--3-3-0-0--0-0--0-0--|

Melody in chorus
e|------------------------------------------------|
B|------------------------------------------------|
G|------------------------------------------------|
D|------------------------------------------------|
A|--6-7-9~-----6-7-6~------6-7-9~------6-7-6~-----|
E|------------------------------------------------|

Solo in the end
e|-----------------------------------------------------------------------|
B|-----------------------------------------------------------------------|
G|---9---8---------9---8-------8--------------------------------9---8----|
D|-----------9------------9h11----9--12--11--9-------12--11--9--------9~-|
A|---------------9-----------------------------10~-----------------------|
E|-----------------------------------------------------------------------|

Pretty easy, but cool :D enjoy
Martin Messner


| /  slide up
| \  slide down
| h  hammer-on
| p  pull-off
| ~  vibrato
| +  harmonic
| x  Mute note
===============================================================================
Tap to rate this tab
 
# A B C D E F G H I J K L M N O P Q R S T U V W X Y Z