Song name
# A B C D E F G H I J K L M N O P Q R S T U V W X Y Z

And One - Traumfrau tab

-------------------------------------------------------------------------------
                      Traumfrau (Intro)  - And One
                                 *requested*
-------------------------------------------------------------------------------
Tabbed by: Martin Messner
Email: bigbonsai@hotmail.de

Tuning: E-Standard
song on youtube: http://www.youtube.com/watch#!v=KfQfDvfgQ4M&a=GxdCwVVULXeEjmouEV_JWMFAn7mptGvd

//////////////////////////////////////////////
//                                          //
//  RATING THIS TAB TAKES ABOUT 5 SECONDS   //
//  AND HELPS ME TO IMPROVE MY WORK         //
//                                          //
//////////////////////////////////////////////

main melody
e|---------------------------------------------------------|
B|---------------------------------------------------------|
G|--------7--------8--8-7------------7-------10--8-7----3--|
D|--5-7-8----5-7-8---------4-4-5-7-8---5-7-8----------4----|
A|---------------------------------------------------------|
E|---------------------------------------------------------|

synth bass
e|----------------------------------|
B|----------------------------------|
G|----------------------------------|
D|---5---5---5---7---8---8-1-2---4--|
A|----------------------------------|
E|--3--3---3---5---6---6-------2----| continues

I will tab the rest of it soon :D


| /  slide up
| \  slide down
| h  hammer-on
| p  pull-off
| ~  vibrato
| +  harmonic
| x  Mute note
===============================================================================
Tap to rate this tab
 
# A B C D E F G H I J K L M N O P Q R S T U V W X Y Z