Song name
# A B C D E F G H I J K L M N O P Q R S T U V W X Y Z

And One - Steine Sind Steine tab

-------------------------------------------------------------------------------
                         Steine sind Steine    -   And One
-------------------------------------------------------------------------------
Tabbed by: Martin Messner
Email: bigbonsai@hotmail.de

Tuning: E-Standard
song on youtube: http://www.youtube.com/watch?v=y6ASE_MnpxY

//////////////////////////////////////////////
//                                          //
//  RATING THIS TAB TAKES ABOUT 5 SECONDS   //
//  AND HELPS ME TO IMPROVE MY WORK         //
//                                          //
//////////////////////////////////////////////

synth-melody
e|-------------------------------------------------------|
B|-------------------------------------------------------|
G|-------------------------------------------------------|
D|---------------------3--3-3--------------------3--3-3--|
A|--3-3-3-5--5-5--------------3-3-3-5--5-5---------------|
E|---------------4-4-4---------------------4-4-4---------|continues (not all the time)

synth-bass
e|-------------------------------|
B|-------------------------------|
G|-------------------------------|
D|----4-5---2-1-1---4-5---2-1-1--|
A|-------------------------------|
E|--2-----2-------2-----2--------|continues


strings (after every verse)
e|-------------------------------|
B|-------------------------------|
G|-------------------------------|
D|--1--3~---3--4~---6--4~---9--8~|
A|-------------------------------|
E|-------------------------------|


.........................................................

chorus.strings
e|----------------------------------------||
B|----------------------------------------||
G|----------------------------------------||
D|--1--------3--------4--------6----8-----||
A|----------------------------------------||
E|----------------------------------------||
                                           |
e|----------------------------------------||
B|----------------------------------------||
G|----4---4----6---6----8---8----8---8----||
D|----------------------------------------||
A|--2---2----4---4----6---6----6---6------||
E|----------------------------------------|| (faster than noted here)
chorus.bass (1)

chorus.strings
e|----------------------------------------||
B|----------------------------------------||
G|----------------------------------------||
D|--1--------3--------4--------6----8-----||
A|----------------------------------------||
E|----------------------------------------||
                                           |
e|----------------------------------------||
B|----------------------------------------||
G|----4---4----6---6----------------------||
D|----------------------6---6----5---5----||
A|--2---2----4---4------------------------||
E|--------------------4---4----3---3------|| (faster than noted here)
chorus.bass (2)


.........................................................


later: chorus.synth-brass
e|------------------------------------------|
B|------------------------------------------|
G|------------------------------------------|
D|--------8-6-------------------------------|
A|-------------9~-------6~----8~-----6---5~-|
E|--------------------6------------6--------|

again later: chorus.trumpets
e|----------------------------------|
B|----------------------------------|
G|--------8-6~---------6------------|
D|----------------8~-----6~---------|
A|-----------------------------9~---|
E|----------------------------------|


| /  slide up
| \  slide down
| h  hammer-on
| p  pull-off
| ~  vibrato
| +  harmonic
| x  Mute note
===============================================================================


Lyrics:

Erst kommt Gold
Dann kommt die Welt
Steine sind Steine
Ohne rotes Geld

Erst kommt Stahl
Dann kommt die Wut
Steine sind Steine
Ohne rotes Blut

Erst kommt Stolz
Dann kommt dein Land
Steine sind Steine
Alle an die Wand

Erst kommt Krieg
Dann kommt die Wahl
Steine sind Steine
Ohne rote Qual

Erst kommt Hass
Dann kommt die Nacht
Steine sind Steine
Ohne rote Macht

Erst kommt Stolz
Dann kommt dein Land
Steine sind Steine
Alle an die Wand

Sei stolz
Deutscher sei stolz

-----

I hope everyone can see that this song is not "nazi", but the whole opposite.
Enjoy :D
Martin Messner
Tap to rate this tab
 
# A B C D E F G H I J K L M N O P Q R S T U V W X Y Z