And One - Panzermensch tab

-------------------------------------------------------------------------------
                         Panzermensch  - And One
-------------------------------------------------------------------------------
Tabbed by: Martin Messner
Email: bigbonsai@hotmail.de

Tuning: E-Standard
this song on youtube: http://www.youtube.com/watch#!v=fziTZ3m-khE&feature=related

//////////////////////////////////////////////
//                                          //
//  RATING THIS TAB TAKES ABOUT 5 SECONDS   //
//  AND HELPS ME TO IMPROVE MY WORK         //
//                                          //
//////////////////////////////////////////////

Intro (synth-                  choir)
e|-------------------|         |-------------------| 
B|-------------------|         |-------------------| 
G|-------------------|         |-------------------| 
D|-------------------|         |-----7--5--7--4~---| 
A|-----7--6----------|         |-------------------|
E|--5--------8--7~---|         |--5----------------| 

Bass
e|----------------------------------|
B|----------------------------------|
G|----------------------------------|
D|----------------------------------|
A|--2--0-3--2--0-3--2--0-3--2--0-3--|
E|----------------------------------|continues

synth-melody
e|---------------------------------------------------------------------------|
B|---------------------------------------------------------------------------|
G|---------------------------------------------------------------------------|
D|---------------------------------------------------------------------------|
A|------------6h7-6----6--------------------6h7-6---6-7-6--------------------|
E|---7-5h7-8---------8---8-7--------7-5h7-8-------8-------8-7--5h7-----------|

melody between the lyrics
e|-------------------------|---------------------------|
B|-------------------------|---------------------------|
G|------------------9----8-|---------------9---8h9-----|
D|----9---8-8----7-----10--|---9---8-8---7---7-----10--|
A|------------9------------|-----------9---------------|
E|--7---7------------------|-7---7---------------------|
    * * * * * *  t  t  t t   * * * * * * t t t t t t

* = drumlike sound
t = trumpet-sound


[choir in the middle/end of the song]

first, like the choir-intro then:
e|-----------------------------------|
B|-----------------------------------|
G|-----------------------------------|
D|-----------------------------------|
A|--9---9---10---10---7---7---6---6--|
E|-----------------------------------|



[the big ending]

synth
e|--------------------------------------||
B|--------------------------------------||
G|--------------------------------------||
D|--------------------------------------||
A|--9--10----13--12----9--10----13--12--||
E|--------------------------------------||
                                         | 
e|--------------------------------------||
B|--------------------------------------||
G|--------------------------------------||
D|--------------------------------------||
A|-----13--12----10-------13--12----10--||
E|--------------------------------------||
drumlike/banjolike sound 



| /  slide up
| \  slide down
| h  hammer-on
| p  pull-off
| ~  vibrato
| +  harmonic
| x  Mute note
===============================================================================

Lyrics:

Deine Schritte sind so schön - tanzen wir das Wiederseh´n
Unsre Blicke sind so stark - jeder tanzt wie ich es sag´

Schwache Beine bleiben steh´n - Panzermenschen weitergeh´n
Feiern wir die Energie - diese Kraft verschwindet nie

Computer, Maschine, Panzermensch --- geh gradeaus - geh gradeaus
Computer, Maschine, Panzermensch --- geh gradeaus - lass es raus!

Wir kämpfen um den siegeszug - panzermenschen kriegen nie genug
Kriege sind zum tanzen da - uns´re freiheit ist so nah

Computer, Maschine, Panzermensch --- geh gradeaus - geh gradeaus
Computer, Maschine, Panzermensch --- geh gradeaus - lass es raus!

Seid bereit (immer bereit)
Seid bereit (immer bereit)
Seid bereit (immer bereit)
Hier kommt der Panzermensch (Maschine)
Hier kommt der Panzermensch (Maschine)
(Computer, Maschine)

Unsre Körper sind so heiß - strobofeuer, stolzer schweiss
Lebe diesen Rythmus aus - geh' gradeaus und lass es raus

Computer, Maschine, Panzermensch --- geh gradeaus - geh gradeaus
Computer, Maschine, Panzermensch --- geh gradeaus - lass es raus!

Seid bereit (immer bereit)
Seid bereit (immer bereit)
Seid bereit (immer bereit)
Hier kommt der Panzermensch (Maschine)
Hier kommt der Panzermensch (Maschine)

Computer, Maschine, Panzermensch --- geh gradeaus - geh gradeaus
Computer, Maschine, Panzermensch --- geh gradeaus - lass es raus!

Computer, Maschine, Panzermensch --- geh gradeaus - geh gradeaus
Computer, Maschine, Panzermensch --- geh gradeaus - lass es raus!

Seid bereit (immer bereit)
Seid bereit (immer bereit)
Seid bereit (immer bereit)
Hier kommt der Panzermensch (Maschine)
Hier kommt der Panzermensch (Maschine)
........immer bereit!
Tap to rate this tab
 
# A B C D E F G H I J K L M N O P Q R S T U V W X Y Z