Guitaretab - guitar tabs
Song name
# A B C D E F G H I J K L M N O P Q R S T U V W X Y Z

And So I Watch You From Afar - A Little Bit Of Solidarity Goes A Long Way tab

I have tabbed it out as normal tuning because I could not work out what tuning
the chords were in so I left it.

Main Riff 0:00 - end

e|------------------------------------------------------------------------|
B|------------------------------------------------------------------------|
G|---------------10-h12-p10---------------------------10-h12-p10----------|
D|-8-0-12-0-8-12------------12-0-13-12----0-12-0-8-12---------- 12-0-13-12|
A|-------------------------------------13---------------------------------|
E|------------------------------------------------------------------------|
This  riff is repeated through most of the song


Harmony to the above riff 0:05 - 0:10
[ Tab from: http://www.guitaretab.com/a/and-so-i-watch-you-from-afar/185654.html ]
e|-----------------13-15-13-----------------------|
B|-11-0-15-0-11-15----------15-0-16-15------------|
G|------------------------------------------------|
D|------------------------------------------------|
A|------------------------------------------------|
E|------------------------------------------------|


This is the little guitar bit that is played with the chords
0:55 - 0:58

e|------------------------------------------------|
B|------------------------------------------------|
G|-------12---------------------------------------|
D|-10-12----10-10-12--10-12-13--------------------|
A|------------------------------------------------|
E|------------------------------------------------|


High pitch harmony. This bit comes towards the middle of the song as a sort of solo. It 
played over the main riff.
1:27 - 1:45

e---------------------------------15-15-13-15-----|
B-------15-15----15-13h-15p-13-11-----------------|
G-12-12-------12----------------------------------|
D-------------------------------------------------|
A-------------------------------------------------|
E-------------------------------------------------|


Thats all i could work out from the song
Related for A Little Bit Of Solidarity Goes A Long Way tab