And So I Watch You From Afar - K Is For Killing Spree tab

Hey just been messing around with this killer riff by ASIWYFA

K is for Killing spree (an ode to)

its not 100%
but its an ace riff
think the timing is 6:10
im no good with music theory stuff

i will tab the whole track when i get chance

Cheers Chad


tuning

e
b
g
d
a
D


Play the Palm muted parts twice

pm~~~~~~~~~~~~~~~~~~~~~~~~~~~~~~~~~~~~~~~~~~~~~~~~~~~~~~~~~~~~~~~~~~~~~~
-------------------------------------------------------------------------|
-------------------------------------------------------------------------|
-------------------------------------------------------------------------|
-------------------------------------------------------------------------|
------------1313-10-8-8/10--------------1313-10-8-8/10-------------------|
-----10--------------------------10--------------------------------------|


pm~~~~~~~~~~~~~~~~~~~~~~~~~~~~~~~~~~~~~~~~~~~~~~~~~~~~~~~~~~~~~~~~~~~~~~
------------------------------------------------------------------------|
------------------------------------------------------------------------|
------------------------------------------------------------------------|
------------------------------------------------------------------------|
------------1010-8-6-6/8--------------1010-8-6-6-8-10-11/13-------------|
-----6---------------------------6--------------------------------------|


pm~~~~~~~~~~~~~~~~~~~~~~~~~~~~~~~~~~~~~~~~~~~~~~~~~~~~~~~~~~~~~~~~~~~~~~
------------------------------------------------------------------------|
------------------------------------------------------------------------|
------------------------------------------------------------------------|
------------------------------------------------------------------------|
------------1010-8-6-6/8--------------1010-8h10p8/6---(pause)-----------|
-----3---------------------------3--------------------------------------|


pm~~~~~~~~~~~~~~~~~~~~~~~~~~~~~~~~~~~~~~~~~~~~~~~~~~~~~~~~~~~~~~~~~~~~~~
------------------------------------------------------------------------|
------------------------------------------------------------------------|
------------------------------------------------------------------------|
------------------------------------------------------------------------|
------------1010-8-6-6/8--------------1010-8-6-6h8----------------------|
-----1---------------------------1-----------------8-9-1010-------------|


after i drop the PM i change the slides for hammer ons pull offs etc

and play this twice

-------------------------------------------------------------------------|
-------------------------------------------------------------------------|
-------------------------------------------------------------------------|
-----10--------------------------10--------------------------------------|
-----10-------1313-10-8-8/10-----10---------1313-10-8-8/10---------------|
-----10--------------------------10--------------------------------------|

------------------------------------------------------------------------|
------------------------------------------------------------------------|
------------------------------------------------------------------------|
-----6---------------------------6--------------------------------------|
-----6-------1010-8-6-6/8--------6------1010-8-6-6-8-10-11/13-----------|
-----6---------------------------6--------------------------------------|


------------------------------------------------------------------------|
------------------------------------------------------------------------|
------------------------------------------------------------------------|
-----3---------------------------3--------------------------------------|
-----3-------1010-8-6-6/8--------3------1010-8h10p8/6^^^^^^---(pause)---|
-----3---------------------------3--------------------------------------|


------------------------------------------------------------------------|
------------------------------------------------------------------------|
------------------------------------------------------------------------|
-----1---------------------------1--------------------------------------|
-----1-------1010-8-6-6/8--------1------1010-8-6-6h8--------------------|
-----1---------------------------1-----------------8-9-1010-------------|


Chad
Tap to rate this tab
 
# A B C D E F G H I J K L M N O P Q R S T U V W X Y Z