Song name
# A B C D E F G H I J K L M N O P Q R S T U V W X Y Z

And You Will Know Us By The Trail Of Dead - Stand In Silence tab

Help us improve GuitareTab! Take a short survey!

Intro / Verse

e|------------------------------|
b|------------------------------|
g|------------------------------|
D|-------------- 5-5-5-5--------|
A|-------2-0-2--/3-3-3-3--------|
E|---3-3------------------------|


(for Verse use same riff with powerchords)

then

e|-------------------------|
b|-------------------------|
g|-----------  ---5555-----| 
D|-7/8-8-8-8-4x---5555-----|
A|-8-8-8-8-8-  ---3333-----|
E|-5/6-6-6-6-  ------------|




last time before bridge end on C 


Bridge ("intro: A song of fire and wine" bit)

e|------------------------------|
b|------------------------------|
g|------------------------------| 2x
D|-0--2-0-2-3-2-----------------|
A|----3-3-3-3-3-----------------|
E|------------------------------|

e|-------------------------------3--3-3--|
b|-------------------------------3--3-3--|
g|--------2----------------------0----0--|
D|--2-3-5---3-5-2-0-2-0-2-0-2-3--0----0--|
A|--3-3-3---3-3-3-3-3-3-3-3-3-3--2--0-2--| 
E|-------------------------------3--3-3--|


that's pretty much it!
listen to song for timing!
enjoy!




Related for Stand In Silence tab