Song name
# A B C D E F G H I J K L M N O P Q R S T U V W X Y Z

And You Will Know Us By The Trail Of Dead - Clair De Lune tab

e|----0---------5-5-5--5-5-5---|
B|----5---------5-5-5--5-5-5---|
G|-5--5-----5---7-7-7--7-7-7---| x12 or something.
D|3---3--5--5---7-7-7--7-7-7---|
A|------3---3---5-5-5--5-5-5---|
E|-----------------------------|

e|----------------------------|
B|----------------------------|
G|----------------------------|
D|-----9------8--7-7-7-7-7-7--|  
A|-----9------8--7-7-7-7-7-7--|
E|-7-7-7--6-6-6--5-5-5-5-5-5--|

what good are promises...

or

e|-----------------------------------------------------|
B|-----------------------------------------------------|
G|-----------------------------------------------------|
D|-9-9-9-9-9-9-8-8-8-8-8-8-7-7-7-7-7-7-7-7-7-7-7-7-----|
A|-9-9-9-9-9-9-8-8-8-8-8-8-7-7-7-7-7-7-7-7-7-7-7-7-----|
E|-7-7-7-7-7-7-6-6-6-6-6-6-5-5-5-5-5-5-5-5-5-5-5-5-----|
Tap to rate this tab
# A B C D E F G H I J K L M N O P Q R S T U V W X Y Z