Song name
# A B C D E F G H I J K L M N O P Q R S T U V W X Y Z

And You Will Know Us By The Trail Of Dead - Wasted State Of Mind tab

-----------------------------------------------------------------------------
       Wasted State of Mind - ...And You Will Know Us By The Trail Of Dead
-----------------------------------------------------------------------------

Tabbed by: Phantomtollboy
Email: Thephantomtollboy@gmail.com

Tuning: Standard

This is the piano part transposed for guitar

Guitar I:

e|---------------------------------------------------------------------------|
B|---------------------------------------------------------------------------|
G|---------------------------------------------------------------------------|
D|------------------------8--------------12-------------8--------------------|
A|------10-------------6-------------10--------------6-----------------------|
E|---8-----------------------------------------------------------------------|

Guitar II:

e|---------------------------------------------------------------------------|
B|---------------------------------------------------------------------------|
G|-------------------15------15------19--15--19--15----------15--------------|
D|---17--13--17--13------17------17------------------13--17------17----------|
A|---------------------------------------------------------------------------|
E|---------------------------------------------------------------------------|

e|---------------------------------------------------------------------------|
B|---------------------------------------------------------------------------|
G|-------------------15------15------19--15--19--15----------15--------------|
D|---17--13--17--13------17------17------------------15--17------17----------|
A|---------------------------------------------------------------------------|
E|---------------------------------------------------------------------------|
Tap to rate this tab
 
# A B C D E F G H I J K L M N O P Q R S T U V W X Y Z