Song name
# A B C D E F G H I J K L M N O P Q R S T U V W X Y Z

Anders Matthesen - Jul Paa Vesterbro tab

    ______________________
   /                     /
  /  Anders Matthesen   /
 /  Jul på Vesterbro   /
/_____________________/

Dette nummer er dejlig overkommeligt, da det er det samme hele vejen
igennem. Groovet, som er disse to takter, er bare samplet på diverse
måder igennem nummeret. Det vil jeg ikke komme ind på, da dette blot
er et guitar-site! :)

Groovet bliver spillet af to akustiske western-guitarer.
Den øverste er panoreret i venstre side og den nederste i højre side.


  Dm              F(add2)           Csus2            Dm
|---------1-----------------------|----------3---------------1-------|
|-------------------------1-------|------1-------1-------------------|
|-----2---------------0-----------|----------------------2-----------|
|-0---------------3---------------|------------------0---------------|
|---------------------------------|--3-------------------------------|
|---------------------------------|----------------------------------|
|
|---------1p0-------------1-------|----------3---------------1p0-----|
|-------------3-------1-----------|------3-----------------------3---|
|-----2-----------0h2-------------|-/5-------------------2-----------|
|-0-------------------------------|------------------0---------------|
|---------------------------------|----------------------------------|
|---------------------------------|----------------------------------|


Hvis groovet skulle arrangeres nogenlunde på en enkelt guitar, kunne
man slå det sammen til dette. Det er dog sindssygt meget federe med
to guitarer - det er næsten helt magisk at spille for die hard fans! ;)

  Dm              F(add2)           Csus2            Dm
|---------1p0-------------1-------|----------3---------------1p0-----|
|-------------3-------1-----------|------3-----------------------3---|
|-----2-----------0h2-0-----------|-/5-----------5-------2-----------|
|-0---------------3---------------|------------------0---------------|
|---------------------------------|-/3-------------------------------|
|---------------------------------|----------------------------------|



Jon Sebastian Frederiksen - 27th /December /09
Just mail me at Maitinin@gmail.com with questions, comments and correction!
Tap to rate this tab
# A B C D E F G H I J K L M N O P Q R S T U V W X Y Z