Song name
# A B C D E F G H I J K L M N O P Q R S T U V W X Y Z

Anders Matthesen - Hjerternes Fest tab

    ____________________
   / Anders Matthesen  /  Dette må efterhånden være en moderne jule-klassiker.
  / Hjerternes Fest   /  Her er en skøn lille sang om kærlighed fra den evigt
 / Jul på Vesterbro  /  kreative Matthesen.
/___________________/

********************************************************************************
 Akkorderne i den reelle toneart, C mol, kan du finde her - følg linket:

********************************************************************************



Capo på 3.bånd

 Forspil:
         C       Am        F       G         C   Am  F         G(add9)
-------|-----------------|-----------------|-----------------|-----------------|
-------|-------1-------1-|-------1-------0-|---------------1-|-------0---------|
-------|-----0-------2---|-----2-------0---|-------------2---|-----2-----------|
-------|---2-------2-----|---3-------0-----|---2---2---3-----|---0-------------|
---0-2-|-3-------0-------|-----------------|-3---0-----------|-------------0-2-|
-3-----|-----------------|-1-------3-------|---------1-------|-3-------3-3-----|

  C       Am        F       G         C   Am  F         G
|-----------------|-----------------|-----------------|-----------------|
|-------1-------1-|-------1---------|---------------1-|-------0---------|
|-----0-------2---|-----2-----------|-------------2---|-----0-----------|
|---2-------2-----|---3-------0-----|---2---2---3-----|---0-------------|
|-3-------0-------|-------------0-2-|-3---0-----------|-------------0-2-|
|-----------------|-1-------3-------|---------1-------|-3-------3-3-----|



 Vers:
  C                 Am                F                 G
|-----------------|-----------------|-----------------|-----------------|
|-------1-------1-|-------1-------1-|-------1-------1-|-------0---------|
|-----0-------0---|-----2-------2---|-----2-------2---|-----0-----------|
|---2-------2-----|---2-------2-----|---3-------3-----|---0-------------|
|-3-------3-------|-0-------0-------|-----------------|-------------0-2-|
|-----------------|-----------------|-1-------1-------|-3-------3-3-----|
 Jeg ku' ha' brugt min hjerne på enhver anden dag

  C                 Am                F                 G
|-----------------|-----------------|-----------------|-----------------|
|-------1-------1-|-------1-------1-|-------1-------1-|-------0---------|
|-----0-------0---|-----2-------2---|-----2-------2---|-----0-----------|
|---2-------2-----|---2-------2-----|---3-------3-----|---0-------0---0-|
|-3-------3-------|-0-------0-------|-----------------|-------------2---|
|-----------------|-----------------|-1-------1-------|-3-------3-------|
 Jeg ku' ha' sagt, at du muligvis sku' ha' skolepengene tilbage

  C                 Am                F                 G
|-----------------|-----------------|-----------------|-----------------|
|-------1-------1-|-------1-------1-|-------1-------1-|-------0---------|
|-----0-------0---|-----2-------2---|-----2-------2---|-----0-------0---|
|---2-------2-----|---2-------2-----|---3-------3-----|---0-------0-----|
|-3-------3-------|-0-------0-------|-----------------|-----------------|
|-----------------|-----------------|-1-------1-------|-3-------3-----0-|
 Jeg ku' ha' brugt mine øjne og sagt, at du lignede en hest

  F                 Am                C                 G
|-----------------|-----------------|-----------------|-------3-------3-|
|-------1-------1-|-------1-------1-|-------1-------1-|-----0-------0---|
|-----2-------2---|-----2-------2---|-----0-------0---|---0-------0-----|
|---3-------3-----|---2-------2-----|---2-------2-----|-----------------|
|-----------------|-0-------0-------|-3-------3-------|-----------------|
|-1-------1-------|-----------------|-----------------|-3-------3-------|
 Men ikke i dag, for i dag er det jul, og julen er hjerternes fest



 Omkvæd:
  C                 Am                F                 G
|-------3-------3-|-------0-------0-|-------1-------1-|-------3---------|
|-----1-------1---|-----1-------1---|-----1-------1---|-----0-----------|
|---0-------0-----|---2-------2-----|---2-------2-----|---0-------0---0-|
|-----------------|-----------------|-----------------|-----------------|
|-3-------3-------|-0-------0-------|-----------------|-------------2---|
|-----------------|-----------------|-1-------1-------|-3-------3-------|
 Og mit hjerte vil ha' julefred      Sange til mit øre og kys til min kind

  C                 Am                F                 G
|-------3-------3-|-------0-------0-|-------1-------1-|-----------------|
|-----1-------1---|-----1-------1---|-----1-------1---|-------0---------|
|---0-------0-----|---2-------2-----|---2-------2-----|-----0-----------|
|-----------------|-----------------|-----------------|---0-------------|
|-3-------3-------|-0-------0-------|-----------------|-------------0-2-|
|-----------------|-----------------|-1-------1-------|-3---------3-----|
 Bare lidt karma og lidt kærlighed   Tro og håb og hygge pænt pakket ind



 Vers (som før)
Jeg ku' ha' brugt min diller og givet din kone et skrald
Jeg ku' ha' brugt min næse og sagt, at hun lugtede lidt af makrel
Jeg ku' ha' brugt mine safter og smittet dig med HIV og med pest
Men ikke i dag, for i dag er det jul, og julen er hjerternes fest



 Omkvæd (som før)



 Et stykke med C:
  F                 G                 C
|-----------------|-----------------|-------3-------3-|
|-------1-------1-|-------0---------|-----1-------1---|
|-----2-------2---|-----0-----------|---0-------0-----|
|---3-------3-----|---0-------0---0-|-----------------|
|-----------------|-------------2---|-3-------3-------|
|-1-------1-------|-3-------3-------|-----------------|
 Jeg ku' ha' brugt mine hænder og sagt, jeg vil tæske dig

  F                 G
|-----------------|-----------------|
|-------1-------1-|-------0---------|
|-----2-------2---|-----0-----------|
|---3-------3-----|---0-------0---0-|
|-----------------|-------------2---|
|-1-------1-------|-3-------3-------|
 Men hjertet, det vil ha' venner

  C                 Am                F                 G
|-----------------|-----------------|-----------------|-----------------|
|-------1-------1-|-------1-------1-|-------1-------1-|-----0---1---3---|
|-----0-------0---|-----2-------2---|-----2-------2---|-----------------|
|---2-------2-----|---2-------2-----|---3-------3-----|---0---0---------|
|-3-------3-------|-0-------0-------|-----------------|---------0---2---|
|-----------------|-----------------|-1-------1-------|-3---------------|
 Det vil ha' kærlighed og karma, humus og shawarma og rødkål og flæskesteg



 D-stykke:
  C                 Am                F                 G
|-0-----3-------3-|-----------------|-----------------|-----------3-----|
|-----1-------1---|-------1-------1-|-------1-------1-|-------0---------|
|---0-------0-----|-----2-------2---|-----2-------2---|-----0-----------|
|-----------------|---2-------2-----|---3-------3-----|---0-------------|
|-3-------3-------|-0-------0-------|-----------------|-------------0-2-|
|-----------------|-----------------|-1-------1-------|-3-------3-------|
 Og det vil ha' julefred             Det vil ha' et juletræ hvor man kan danse

  C                 Am
|-------3-------3-|-------0-------0-|
|-----1-------1---|-----1-------1---|
|---0-------0-----|---2-------2-----|
|-----------------|-----------------|
|-3-------3-------|-0-------0-------|
|-----------------|-----------------|
 Bare lidt kærlighed

  F                 F                 Dm7               G
|-----------------|-----------------|-------1-------1-|-------3---------|
|-------1-------1-|-----1-----------|-----1-------1---|-----0---------0-|
|-----2-------2---|---2---2---2---0-|---2-------2-----|---0---------0---|
|---3-------3-----|-3-------3---2---|-0-------0-------|-----------0-----|
|-----------------|-----------------|-----------------|-----------------|
|-1-------1-------|-----------------|-----------------|-3-------3-------|
 Det vil ha' en mor der ammer og mænd der krammer - Uden at de er klamme svanse



 Omkvæd (som før)



 Efterspil:
  C       Am        F       G         C   Am  F         G
|-----------------|-----------------|-----------------|-----------------|
|-------1-------1-|-------1---------|---------------1-|-------0---------|
|-----0-------2---|-----2-----------|-------------2---|-----0-----------|
|---2-------2-----|---3-------0-----|---2---2---3-----|---0-------------|
|-3-------0-------|-------------0-2-|-3---0-----------|-------------0-2-|
|-----------------|-1-------3-------|---------1-------|-3-------3-3-----|

  C       Am        F       G         C   Am  F         G                 C
|-----------------|-----------------|-----------------|-----------------|-0^---:
|-------1-------1-|-------1---------|---------------1-|-----0---1---3---|-1^---:
|-----0-------2---|-----2-----------|-------------2---|-----------0---0-|-0^---:
|---2-------2-----|---3-------------|---2---2---3-----|---0---0---------|-2^---:
|-3-------0-------|-------------0-2-|-3---0-----------|---------0---2---|-3^---:
|-----------------|-1-------3-3-----|---------1-------|-3---------------|------:

 Og så må I eller have en glædelig jul, allesusammen!
 Og husk nu på, at en julegave behøver ikke være et stykke krigs-legetøj
 eller et Nintendo-spil - det kan også bare være et kram.




Jon Sebastian Frederiksen - 26th /December /09
Just mail me at Maitinin@gmail.com with questions, comments and corrections!
Tap to rate this tab
# A B C D E F G H I J K L M N O P Q R S T U V W X Y Z