Song name
# A B C D E F G H I J K L M N O P Q R S T U V W X Y Z

Anders Parker - Under Wide Unbroken Skies tab

-------------------------------------------------------------------------------
		UNDER WIDE UNBROKEN SKIES - Anders Parker
-------------------------------------------------------------------------------

From the 2006 album "Anders Parker"
http://www.andersparker.com

Tuning: Standard
 
Pick along with the words

e|---------------------------------------------------------------------------|
B|---------------------------------------------------------------------------|
G|-0-2-0-----------0-2-0-------------0-2-0-----------0-2-0-------------------|
D|-------2-2-0------------2-2-5-2-0--------2-2-0-----------2-2-0-------------|
A|-------------2-3-------------------------------2-3-------------2-3---------|
E|---------------------------------------------------------------------------|

grace be with you and luck and speed
may all your roads be worth the ride
along the byways, forgotten places
under wide unbroken skies

Chorus chords: (no words)

F C/G G C/G x2

e|---------------------------------------------------------------------------|
B|---------------------------------------------------------------------------|
G|-0-2-0-----------0-2-0-------------0-2-0-----------0-2-0-------------------|
D|-------2-2-0------------2-2-5-2-0--------2-2-0-----------2-2-0-------------|
A|-------------2-3-------------------------------2-3-------------2-3---------|
E|---------------------------------------------------------------------------|

peace be with you and all of yours
and may your dreams become fulfilled
i hope you find some joy and laughter
under wide unbroken skies

Chorus chords: (no words)

F C/G G C/G x4
Tap to rate this tab
# A B C D E F G H I J K L M N O P Q R S T U V W X Y Z