Song name
# A B C D E F G H I J K L M N O P Q R S T U V W X Y Z

Andioliphilipp - Mutter Theresa tab

Mutter Theresa Tabs

e|-------------------------------------------------------------------------|
B|----------------------------------------------------------3x-------------|
G|-------------------0--9--12-9--------------------------------------------|
D|--7-10-7--7-7-10-7-0--10-10-10--9--9--12-9--10---------------------------|
A|--0-0--0--8-8--8-8--------------10-10-10-10-10---------------------------|
E|-------------------------------------------------------------------------|

                                                G       Cis         (At the beginning)         
e|---5-------9-------------|
B|---5-------9-------------|
G|---5-------9-------------|
D|---7------11-------------|
A|---7------11-------------|
E|---5-------9-------------|

    A          F           C         G
e|--5----------1-----------3---------3-------------------------------------|
B|--5----------1-----------3---------3-------------------------------------|
G|--5----------1-----------5---------3-------------------------------------|
D|--7----------3-----------5---------5-------------------------------------|
A|--7----------3-----------3---------5-------------------------------------|
E|--5----------1-----------3---------3-------------------------------------|
   
Try to get the Rythem
Tap to rate this tab
# A B C D E F G H I J K L M N O P Q R S T U V W X Y Z