Andioliphilipp - Mutter Theresa tab

Mutter Theresa:

by Andioliphilipp


e|-------------------------------------------------------------------------|
B|----------------------------------------------------------3x-------------|
G|-------------------0--9--12-9--------------------------------------------|
D|--7-10-7--7-7-10-7-0--10-10-10--9--9--12-9--10---------------------------|
A|--0-0--0--8-8--8-8--------------10-10-10-10-10---------------------------|
E|-------------------------------------------------------------------------|

                                                G       Cis      (Beginning)   



(Bridge)

e|------------------------------------------------------------|
B|------------------------------------------------------------|
G|------------------------------------------------------------|
D|--x-x-7-x-x-7-x-x-7-x-x-7-x-x-7-x-x-7----1919191919-19------|
A|--x-x-7-x-x-7-x-x-7-x-x-7-x-x-7-x-x-7----1919191919-19------|
E|--x-x-5-x-x-5-x-x-5-x-x-5-x-x-5-x-x-5----1717171717-17------|


(Verse)
    A          F           C         G
e|--5----------1-----------3---------3-------------------------------------|
B|--5----------1-----------3---------3---------------------10x-------------|
G|--5----------1-----------5---------3-------------------------------------|
D|--7----------3-----------5---------5-------------------------------------|
A|--7----------3-----------3---------5-------------------------------------|
E|--5----------1-----------3---------3-------------------------------------|
   


(Pre Chorus)				...let ring!
    C         G            A          F      
e|--3---------3------------5----------1---------------|  (Second Time play at end 2x F and pause)
B|--3---------3------------5----------1--------2x-----|
G|--5---------3------------5----------2---------------|
D|--5---------5------------7----------3---------------|
A|--3---------5------------7----------3---------------|
E|--3---------3------------5----------1---------------|

    C         G            A          F      
e|--3---------3------------5----------1---------------|  (Second Time shredd at end F 8 times)    
B|--3---------3------------5----------1--------2x-----|
G|--5---------3------------5----------2---------------|
D|--5---------5------------7----------3---------------|
A|--3---------5------------7----------3---------------|
E|--3---------3------------5----------1---------------|





(Pre Chorus Lead guitar)


e|----------------------------------------------------| (First Time)     
B|-----5---------3-----------1------------1-----------|
G|-------5---------4-----------2------------2---------|
D|---------5----5----5-----2-----2------3-----3-------|
A|----5------------------0----------------------------|
E|--3---------3-----------------------1---------------|  


e|----------------------------------------------------| (Second Time)     
B|------1----------0----------1-----------------------|
G|--------0----------0----------2---------------------|
D|----2-----2----2-----0----2-----2-------------------|
A|--3---------------------0---------------------------|
E|-------------3--------------------------------------|  

e|----------------------------------------------------| (3th Time)     
B|-----5---------3-----------1------------1-----------|
G|-------5---------4-----------2------------2---------|
D|---------5----5----5-----2-----2------3-----3-------|
A|----5------------------0----------------------------|
E|--3---------3-----------------------1---------------|


e|----------------------------------------------------| (Second Time)     
B|------1----------0----------1-----------------------|
G|--------0----------0----------2---------------------|
D|----2-----2----2-----0----2-----2---3-3-3-3-3-3-3-3-|
A|--3---------------------0-----------3-3-3-3-3-3-3-3-|
E|-------------3----------------------1-1-1-1-1-1-1-1-|





(rythm guitar)

    A          F           C         G
e|--5----------1-----------3---------3-------------------------------------|
B|--5----------1-----------3---------3---------------------2x--------------|
G|--5----------1-----------5---------3-------------------------------------|
D|--7----------3-----------5---------5-------------------------------------|
A|--7----------3-----------3---------5-------------------------------------|
E|--5----------1-----------3---------3-------------------------------------



(lead guitar)

e|-------------------------------------------------------------------------|
B|----------------------------------------------------------2x-------------|
G|-------------------0--9--12-9--------------------------------------------|
D|--7-10-7--7-7-10-7-0--10-10-10--9--9--12-9--10---------------------------|
A|--0-0--0--8-8--8-8--------------10-10-10-10-10---------------------------|
E|-------------------------------------------------------------------------|



The Rest of the Song is pretty much the same. try to figure it out!
      

    A          F           C         G
e|--5----------1-----------3---------3-------------------------------------|
B|--5----------1-----------3---------3-------------------------------------|
G|--5----------1-----------5---------3-------------------------------------|
D|--7----------3-----------5---------5-------------------------------------|
A|--7----------3-----------3---------5-------------------------------------|
E|--5----------1-----------3---------3-------------------------------------|

Have Fun!
Tap to rate this tab
 
# A B C D E F G H I J K L M N O P Q R S T U V W X Y Z