Song name
# A B C D E F G H I J K L M N O P Q R S T U V W X Y Z

Andra And The Backbone - Sempurna tab

untuk silvia roza
|-0-----------0---|-------------------|-------------------|-----------------|
|-----------------|-4-------------4---|-2------------2----|-4-------------4-|
|--------4--------|--------4----------|--------4----------|--------4--------|
|-2----2---2------|-2----2----2-------|-2----2---2--------|-2----2----2-----|
|-----------------|-------------------|-------------------|-----------------|
|-----------------|-------------------|-------------------|-----------------|

|-0-----------0---|-------------------|-------------------|-----------------|
|-----------------|-4-------------4---|-2------------2----|-4-------------4-|
|--------4--------|--------4----------|--------4----------|--------4--------|
|-----------------|-------------------|-------------------|-----------------|
|-4----4---4------|-4----4----4-------|-4----4---4--------|-4----4----4-----|
|-----------------|-------------------|-------------------|-----------------|

|-4-----------4---|-2-------------2---|-4-------------4---|-2------------2--|
|-----------------|-------------------|-------------------|-----------------|
|--------4--------|--------4----------|--------4----------|--------4--------|
|-----------------|-------------------|-------------------|-----------------|
|-0----0---0------|-0----0----0-------|-2----2---2--------|-2----2----2-----|
|-----------------|-------------------|-------------------|-----------------|

|-0-----------0---|-------------------|-------------------|-----------------|
|-----------------|-4-------------4---|-2-------------2---|-4------------4--|
|--------4--------|--------4----------|--------4----------|--------4--------|
|-----------------|-------------------|-------------------|-----------------|
|-4----4---4------|-4----4---4--------|-4----4---4--------|-4----4---4------|
|-----------------|-------------------|-------------------|-----------------|
0000000000000000000000000000000000000000000000000000000000000000000000000000
|-7-----------0---|-7-----------0-----|-7-----------0-----|-7-----------0---|
|--------7--------|--------7----------|--------7----------|--------7--------|
|-----------------|-------------------|-------------------|-----------------|
|-----------------|-------------------|-------------------|-----------------|
|-5----5---5------|-5----5---5--------|-7----7---7--------|-7----7---7------|
|-----------------|-------------------|-------------------|-----------------|

|-7-----------0---|-7-----------0-----|-7-----------0-----|-7-----------0---|
|--------7--------|--------7----------|--------7----------|--------7--------|
|-----------------|-------------------|-------------------|-----------------|
|-4----4---4------|-4----4---4--------|-4----4---4--------|-4----4---4------|
|-----------------|-------------------|-------------------|-----------------|
|-----------------|-------------------|-------------------|-----------------|

|-7-----------0---|-7-----------0-----|-7-----------0-----|-7-----------0---|
|--------7--------|--------7----------|--------7----------|--------7--------|
|-----------------|-------------------|-------------------|-----------------|
|-----------------|-------------------|-------------------|-----------------|
|-5----5---5------|-5----5---5--------|-7----7---7--------|-7----7---7------|
|-----------------|-------------------|-------------------|-----------------|
0000000000000000000000000000000000000000000000000000000000000000000000000000
|-4-----------4---|-------------------|-4-----------------|-4---------------|
|-----------------|-4------5------4---|--------------0----|--------------0--|
|--------4--------|-------------------|--------5----------|--------4--------|
|-2----2---2------|-4----4-----4------|-------------------|-----------------|
|-----------------|-------------------|-------------------|-----------------|
|-----------------|-------------------|-5----5---5--------|-5----5----5-----|

|-4-----------4---|-------------------|-4-----------------|-4---------------|
|-----------------|-4------5------4---|--------------0----|--------------0--|
|--------4--------|-------------------|--------5----------|--------4--------|
|-2----2---2------|-4----4-----4------|-------------------|-----------------|
|-----------------|-------------------|-------------------|-----------------|
|-----------------|-------------------|-5----5---5--------|-5----5----5-----|

|-4---------------|-------------------|-4-----------------|-4---------------|
|-------------5---|-4------5------4---|--------------0----|--------------0--|
|--------6--------|-------------------|--------5----------|--------4--------|
|-6----6---6------|-4----4-----4------|-------------------|-----------------|
|-----------------|-------------------|-------------------|-----------------|
|-----------------|-------------------|-5----5---5--------|-5----5----5-----|

|-4---------------|-------------------|-4-----------------|-----4h2-2h0-----|
|-------------5---|-4------5------4---|--------------0----|-----------------|
|--------6--------|-------------------|--------5----------|----2------------|
|-6----6---6------|-4----4-----4------|-------------------|---4-------------|
|-----------------|-------------------|-------------------|--4--------------|
|-----------------|-------------------|-5----5---5--------|-2---------------|
0000000000000000000000000000000000000000000000000000000000000000000000000000
|-0-----------0---|-------------------|-------------------|-----------------|
|-----------------|-4-------------4---|-2------------2----|-4-------------4-|
|--------4--------|--------4----------|--------4----------|--------4--------|
|-2----2---2------|-2----2----2-------|-2----2---2--------|-2----2----2-----|
|-----------------|-------------------|-------------------|-----------------|
|-----------------|-------------------|-------------------|-----------------|
selesai... (c) reza priatna fk unri
Tap to rate this tab
# A B C D E F G H I J K L M N O P Q R S T U V W X Y Z