Song name
# A B C D E F G H I J K L M N O P Q R S T U V W X Y Z

Andra And The Backbone - Lagi Dan Lagi tab

                     Lagi Dan Lagi By Andra And The Backcone

Lead Guitar

Turning : E,B,G,D,A,E


  Q     Q    Q     Q       Q     Q    Q     Q       Q     Q    Q     Q
-------------7----------|-------------7----------|-------------7----------|
-------10---------10----|-------10---------10----|-------10---------10----|
--9---------------------|--9---------------------|--9---------------------|
------------------------|------------------------|------------------------|
------------------------|------------------------|------------------------|
------------------------|------------------------|------------------------|




  Q     Q    Q     Q
-------------7----------|  4X
-------10---------10----|
--9---------------------|
------------------------|
------------------------|
------------------------|


  E  E  E  E  E  E  E  E
--------------------------|
--------------------------|
--------------------------|
--------7-----6-----------|
-----------------------7--|
--5--5-----5-----5--5-----|


  PM    PM    PM             PM PM    PM    PM PM
  E  E  E  E  E  E  E  E     E  E  E  E  E  E  E  E
--------------------------|--------------------------|
--------------------------|--------------------------|
--------------------------|--------------------------|
--------------------------|--------7-----6-----------|
-----7-----4-----5--4-----|-----------------------7--|
--5-----5-----5--------5--|--5--5-----5-----5--5-----|


  PM    PM    PM             PM PM    PM    PM PM PM
  E  E  E  E  E  E  E  E     E  E  E  E  E  E  E  E
--------------------------|--------------------------|
--------------------------|--------------------------|
--------------------------|--------------1-----------|
--------------------------|--------2-----------------|
-----7-----4-----5--4-----|--------------------------|
--5-----5-----5--------5--|--2--2-----2-----2--2--2--|


     PM    PM PM PM    PM       PM PM PM    PM    PM
  E  E  E  E  E  E  E  E     E  E  E  E  E  E  E  E
--------------------------|--------------------------|
--------------------------|--------------------------|
--------2-----------------|--4-----------------2-----|
--2-----------------2-----|--------------2-----------|
--------------------------|--------------------------|
-----2-----2--2--2-----2--|-----2--2--2-----2-----2--|


  PM    PM    PM             PM PM    PM    PM PM
  E  E  E  E  E  E  E  E     E  E  E  E  E  E  E  E
--------------------------|--------------------------|
--------------------------|--------------------------|
-----------1-----2--1-----|--------2-----1--------4--|
-----2-----------------2--|--0--0-----0-----0--0-----|
--------------------------|--------------------------|
--2-----2-----2-----------|--------------------------|


  PM    PM    PM             PM PM    PM    PM PM
  E  E  E  E  E  E  E  E     E  E  E  E  E  E  E  E
--------------------------|--------------------------|
-----------------3--2-----|--------------------------|
-----2-----1-----------2--|--------2-----1--------4--|
--0-----0-----0-----------|--2--2-----2-----2--2-----|
--------------------------|--------------------------|
--------------------------|--------------------------|


  PM    PM    PM             PM PM    PM    PM PM PM
  E  E  E  E  E  E  E  E     E  E  E  E  E  E  E  E
--------------------------|--------------------------|
--------------------------|--------------------------|
-----2-----1-----2--1--2--|--------------1-----------|
--2-----2-----2-----------|--------2-----------------|
--------------------------|--------------------------|
--------------------------|--2--2-----2-----2--2--2--|


     PM    PM PM PM    PM       PM PM PM    PM    PM
  E  E  E  E  E  E  E  E     E  E  E  E  E  E  E  E
--------------------------|--------------------------|
--------------------------|--------------------------|
--------2-----------------|--4-----------------2-----|
--2-----------------2-----|--------------2-----------|
--------------------------|--------------------------|
-----2-----2--2--2-----2--|-----2--2--2-----2-----2--|


  PM    PM    PM             PM PM    PM    PM PM
  E  E  E  E  E  E  E  E     E  E  E  E  E  E  E  E
--------------------------|--------------------------|
--------------------------|--------------------------|
-----------1-----2--1-----|--------2-----1--------4--|
-----2-----------------2--|--0--0-----0-----0--0-----|
--------------------------|--------------------------|
--2-----2-----2-----------|--------------------------|


  PM    PM    PM             PM PM    PM    PM PM
  E  E  E  E  E  E  E  E     E  E  E  E  E  E  E  E
--------------------------|--------------------------|
--------------------------|--------------------------|
-----2-----1-----2--1--2--|--------2-----1--------4--|
--0-----0-----0-----------|--2--2-----2-----2--2-----|
--------------------------|--------------------------|
--------------------------|--------------------------|


  PM    PM    PM             PM PM    PM    PM PM
  E  E  E  E  E  E  E  E     E  E  E  E  E  E  E  E
--------------------------|--------------------------|
--------------------------|--------------------------|
-----2-----1-----2--1-----|--------2-----1--------4--|
--2-----2-----2--------2--|--------------------------|
--------------------------|--0--0-----0-----0--0-----|
--------------------------|--------------------------|


  PM    PM    PM             PM PM    PM    PM PM
  E  E  E  E  E  E  E  E     E  E  E  E  E  E  E  E
--------------------------|--------------------------|
--------------------------|--------------------------|
-----2-----1-----2--1-----|--------2-----1--------4--|
-----------------------2--|--------------------------|
--0-----0-----0-----------|--------------------------|
--------------------------|--2--2-----2-----2--2-----|


  PM    PM    PM             PM PM    PM    PM PM
  E  E  E  E  E  E  E  E     E  E  E  E  E  E  E  E
--------------------------|--------------------------|
--------------------------|--------------------------|
-----2-----1-----2--1-----|--------2-----1--------4--|
-----------------------2--|--0--0-----0-----0--0-----|
--------------------------|--------------------------|
--2-----2-----2-----------|--------------------------|


  PM    PM    PM             PM PM    PM    PM PM
  E  E  E  E  E  E  E  E     E  E  E  E  E  E  E  E
--------------------------|--------------------------|
-----------------3--2-----|--------------------------|
-----2-----1-----------2--|--------2-----1--------4--|
--0-----0-----0-----------|--2--2-----2-----2--2-----|
--------------------------|--------------------------|
--------------------------|--------------------------|


  PM    PM    PM             PM PM    PM    PM PM
  E  E  E  E  E  E  E  E     E  E  E  E  E  E  E  E
--------------------------|--------------------------|
--------------------------|--------------------------|
-----2-----1-----2--1--2--|--------------------------|
--2-----2-----2-----------|--------7-----6-----------|
--------------------------|-----------------------7--|
--------------------------|--5--5-----5-----5--5-----|


  PM    PM    PM             PM PM    PM    PM PM
  E  E  E  E  E  E  E  E     E  E  E  E  E  E  E  E
--------------------------|--------------------------|
--------------------------|--------------------------|
--------------------------|--------------------------|
--------------------------|--------7-----6-----------|
-----7-----4-----5--4-----|-----------------------7--|
--5-----5-----5--------5--|--5--5-----5-----5--5-----|


  PM    PM    PM             PM PM    PM    PM PM
  E  E  E  E  E  E  E  E     E  E  E  E  E  E  E  E
--------------------------|--------------------------|
--------------------------|--------------------------|
--------------------------|--------------------------|
--------------------------|--------7-----6-----------|
-----7-----4-----5--4-----|-----------------------7--|
--5-----5-----5--------5--|--5--5-----5-----5--5-----|


  PM    PM    PM             PM PM    PM    PM PM
  E  E  E  E  E  E  E  E     E  E  E  E  E  E  E  E
--------------------------|--------------------------|
--------------------------|--------------------------|
--------------------------|--------------------------|
--------------------------|--------7-----6-----------|
-----7-----4-----5--4-----|-----------------------7--|
--5-----5-----5--------5--|--5--5-----5-----5--5-----|


  PM    PM    PM             PM PM    PM    PM PM PM
  E  E  E  E  E  E  E  E     E  E  E  E  E  E  E  E
--------------------------|--------------------------|
--------------------------|--------------------------|
--------------------------|--------------1-----------|
--------------------------|--------2-----------------|
-----7-----4-----5--4-----|--------------------------|
--5-----5-----5--------5--|--2--2-----2-----2--2--2--|


     PM    PM PM PM    PM       PM PM PM    PM    PM
  E  E  E  E  E  E  E  E     E  E  E  E  E  E  E  E
--------------------------|--------------------------|
--------------------------|--------------------------|
--------2-----------------|--4-----------------2-----|
--2-----------------2-----|--------------2-----------|
--------------------------|--------------------------|
-----2-----2--2--2-----2--|-----2--2--2-----2-----2--|


  PM    PM    PM             PM PM    PM    PM PM
  E  E  E  E  E  E  E  E     E  E  E  E  E  E  E  E
--------------------------|--------------------------|
--------------------------|--------------------------|
-----------1-----2--1-----|--------2-----1--------4--|
-----2-----------------2--|--0--0-----0-----0--0-----|
--------------------------|--------------------------|
--2-----2-----2-----------|--------------------------|


  PM    PM    PM             PM PM    PM    PM PM
  E  E  E  E  E  E  E  E     E  E  E  E  E  E  E  E
--------------------------|--------------------------|
-----------------3--2-----|--------------------------|
-----2-----1-----------2--|--------2-----1--------4--|
--0-----0-----0-----------|--2--2-----2-----2--2-----|
--------------------------|--------------------------|
--------------------------|--------------------------|


  PM    PM    PM             PM PM    PM    PM PM PM
  E  E  E  E  E  E  E  E     E  E  E  E  E  E  E  E
--------------------------|--------------------------|
--------------------------|--------------------------|
-----2-----1-----2--1--2--|--------------1-----------|
--2-----2-----2-----------|--------2-----------------|
--------------------------|--------------------------|
--------------------------|--2--2-----2-----2--2--2--|


     PM    PM PM PM    PM       PM PM PM    PM    PM
  E  E  E  E  E  E  E  E     E  E  E  E  E  E  E  E
--------------------------|--------------------------|
--------------------------|--------------------------|
--------2-----------------|--4-----------------2-----|
--2-----------------2-----|--------------2-----------|
--------------------------|--------------------------|
-----2-----2--2--2-----2--|-----2--2--2-----2-----2--|


  PM    PM    PM             PM PM    PM    PM PM
  E  E  E  E  E  E  E  E     E  E  E  E  E  E  E  E
--------------------------|--------------------------|
--------------------------|--------------------------|
-----------1-----2--1-----|--------2-----1--------4--|
-----2-----------------2--|--0--0-----0-----0--0-----|
--------------------------|--------------------------|
--2-----2-----2-----------|--------------------------|


  PM    PM    PM             PM PM    PM    PM PM
  E  E  E  E  E  E  E  E     E  E  E  E  E  E  E  E
--------------------------|--------------------------|
--------------------------|--------------------------|
-----2-----1-----2--1--2--|--------2-----1--------4--|
--0-----0-----0-----------|--2--2-----2-----2--2-----|
--------------------------|--------------------------|
--------------------------|--------------------------|


  PM    PM    PM             PM PM    PM    PM PM
  E  E  E  E  E  E  E  E     E  E  E  E  E  E  E  E
--------------------------|--------------------------|
--------------------------|--------------------------|
-----2-----1-----2--1-----|--------2-----1--------4--|
--2-----2-----2--------2--|--------------------------|
--------------------------|--0--0-----0-----0--0-----|
--------------------------|--------------------------|


  PM    PM    PM             PM PM    PM    PM PM
  E  E  E  E  E  E  E  E     E  E  E  E  E  E  E  E
--------------------------|--------------------------|
--------------------------|--------------------------|
-----2-----1-----2--1-----|--------2-----1--------4--|
-----------------------2--|--------------------------|
--0-----0-----0-----------|--------------------------|
--------------------------|--2--2-----2-----2--2-----|


  PM    PM    PM             PM PM    PM    PM PM
  E  E  E  E  E  E  E  E     E  E  E  E  E  E  E  E
--------------------------|--------------------------|
--------------------------|--------------------------|
-----2-----1-----2--1-----|--------2-----1--------4--|
-----------------------2--|--0--0-----0-----0--0-----|
--------------------------|--------------------------|
--2-----2-----2-----------|--------------------------|


  PM    PM    PM    PM       PM PM    PM    PM PM
  E  E  E  E  E  E  E  E     E  E  E  E  E  E  E  E
--------------------------|--------------------------|
--------------------------|--------------------------|
-----2-----1-----2--1--2--|--------2-----1--------4--|
--0-----0-----0-----------|--2--2-----2-----2--2-----|
--------------------------|--------------------------|
--------------------------|--------------------------|


  PM    PM    PM             PM PM    PM    PM PM
  E  E  E  E  E  E  E  E     E  E  E  E  E  E  E  E
--------------------------|--------------------------|
--------------------------|--------------------------|
-----2-----1-----2--1-----|--------2-----1--------4--|
--2-----2-----2--------2--|--------------------------|
--------------------------|--0--0-----0-----0--0-----|
--------------------------|--------------------------|


  PM    PM    PM             PM PM    PM    PM PM
  E  E  E  E  E  E  E  E     E  E  E  E  E  E  E  E
--------------------------|--------------------------|
--------------------------|--------------------------|
-----2-----1-----2--1-----|--------2-----1--------4--|
-----------------------2--|--------------------------|
--0-----0-----0-----------|--------------------------|
--------------------------|--2--2-----2-----2--2-----|


  PM    PM    PM             PM PM    PM    PM PM
  E  E  E  E  E  E  E  E     E  E  E  E  E  E  E  E
--------------------------|--------------------------|
--------------------------|--------------------------|
-----2-----1-----2--1-----|--------2-----1--------4--|
-----------------------2--|--0--0-----0-----0--0-----|
--------------------------|--------------------------|
--2-----2-----2-----------|--------------------------|


  PM    PM    PM             PM PM    PM    PM PM
  E  E  E  E  E  E  E  E     E  E  E  E  E  E  E  E
--------------------------|--------------------------|
-----------------3--2-----|--------------------------|
-----2-----1-----------2--|--------2-----1--------4--|
--0-----0-----0-----------|--2--2-----2-----2--2-----|
--------------------------|--------------------------|
--------------------------|--------------------------|


  PM    PM    PM
  E  E  E  E  E  E  E  E
--------------------------|------------------------------|
--------------------------|--10--10--10--10--9--9--9--9--|
-----2-----1-----2--1--2--|------------------------------|
--2-----2-----2-----------|------------------------------|
--------------------------|------------------------------|
--------------------------|------------------------------|

--------------------------|------------------------------|
--------------------------|--10--10--10--10--9--9--9--9--|
--9--9--9--9--6--6--6--6--|------------------------------|
--------------------------|------------------------------|
--------------------------|------------------------------|
--------------------------|------------------------------|

--------------------------|------------------------------|
--------------------------|--10--10--10--10--9--9--9--9--|
--9--9--9--9--6--6--6--6--|------------------------------|
--------------------------|------------------------------|
--------------------------|------------------------------|
--------------------------|------------------------------|

--------------------------|------------------------------|
--------------------------|--10--10--10--10--9--9--9--9--|
--9--9--9--9--6--6--6--6--|------------------------------|
--------------------------|------------------------------|
--------------------------|------------------------------|
--------------------------|------------------------------|

--------------------------|----------------------|----------------------|
--------------------------|----------------------|----------------------|
--9--9--9--9--6--6--6--6--|----------------------|------------9----9----|
--------------------------|--9----9----9----9----|--9----9--------------|
--------------------------|----------------------|----------------------|
--------------------------|----------------------|----------------------|

----------------------|----------------------|-------------------|
----------------------|----------------------|-------------------|
--7----7----7----7----|--7----7----9----9----|--6----------------|
----------------------|----------------------|-------------------|
----------------------|----------------------|-------------------|
----------------------|----------------------|-------------------|



  Q     Q    Q     Q       Q     Q    Q     Q       Q     Q    Q     Q
-------------7----------|-------------7----------|-------------7----------|
-------10---------10----|-------10---------10----|-------10---------10----|
--9---------------------|--9---------------------|--9---------------------|
------------------------|------------------------|------------------------|
------------------------|------------------------|------------------------|
------------------------|------------------------|------------------------|




  Q     Q    Q     Q
-------------7----------|------------4X
-------10---------10----|
--9---------------------|
------------------------|
------------------------|
------------------------|

  E  E  E  E  E  E  E  E
--------------------------|
--------------------------|
--------2-----1--------4--|
--0--0-----0-----0--0-----|
--------------------------|
--------------------------|


  E  E  E  E  E  E  E  E     E  E  E  E  E  E  E  E
--------------------------|--------------------------|
--------------------------|--------------------------|
-----2-----1-----2--1--2--|--------2-----1--------4--|
--0-----0-----0-----------|--2--2-----2-----2--2-----|
--------------------------|--------------------------|
--------------------------|--------------------------|


  E  E  E  E  E  E  E  E     E  E  E  E  E  E  E  E
--------------------------|--------------------------|
--------------------------|--------------------------|
-----2-----1-----2--1-----|--------2-----1--------4--|
--2-----2-----2--------2--|--------------------------|
--------------------------|--0--0-----0-----0--0-----|
--------------------------|--------------------------|


  E  E  E  E  E  E  E  E     E  E  E  E  E  E  E  E
--------------------------|--------------------------|
--------------------------|--------------------------|
-----2-----1-----2--1-----|--------2-----1--------4--|
-----------------------2--|--------------------------|
--0-----0-----0-----------|--------------------------|
--------------------------|--2--2-----2-----2--2-----|


  E  E  E  E  E  E  E  E     E  E  E  E  E  E  E  E
--------------------------|--------------------------|
--------------------------|--------------------------|
-----2-----1-----2--1-----|--------2-----1--------4--|
-----------------------2--|--0--0-----0-----0--0-----|
--------------------------|--------------------------|
--2-----2-----2-----------|--------------------------|


  E  E  E  E  E  E  E  E     E  E  E  E  E  E  E  E
--------------------------|--------------------------|
--------------------------|--------------------------|
-----2-----1-----2--1--2--|--------2-----1--------4--|
--0-----0-----0-----------|--2--2-----2-----2--2-----|
--------------------------|--------------------------|
--------------------------|--------------------------|


  E  E  E  E  E  E  E  E     E  E  E  E  E  E  E  E
--------------------------|--------------------------|
--------------------------|--------------------------|
-----2-----1-----2--1-----|--------2-----1--------4--|
--2-----2-----2--------2--|--------------------------|
--------------------------|--0--0-----0-----0--0-----|
--------------------------|--------------------------|


  E  E  E  E  E  E  E  E     E  E  E  E  E  E  E  E
--------------------------|--------------------------|
--------------------------|--------------------------|
-----2-----1-----2--1-----|--------2-----1--------4--|
-----------------------2--|--------------------------|
--0-----0-----0-----------|--------------------------|
--------------------------|--2--2-----2-----2--2-----|


  E  E  E  E  E  E  E  E     E  E  E  E  E  E  E  E
--------------------------|--------------------------|
--------------------------|--------------------------|
-----2-----1-----2--1-----|--------2-----1--------4--|
-----------------------2--|--0--0-----0-----0--0-----|
--------------------------|--------------------------|
--2-----2-----2-----------|--------------------------|


  E  E  E  E  E  E  E  E     E  E  E  E  E  E  E  E
--------------------------|--------------------------|
--------------------------|--------------------------|
-----2-----1-----2--1--2--|--------2-----1--------4--|
--0-----0-----0-----------|--2--2-----2-----2--2-----|
--------------------------|--------------------------|
--------------------------|--------------------------|


  E  E  E  E  E  E  E  E     E  E  E  E  E  E  E  E
--------------------------|--------------------------|
--------------------------|--------------------------|
-----2-----1-----2--1-----|--------2-----1--------4--|
--2-----2-----2--------2--|--------------------------|
--------------------------|--0--0-----0-----0--0-----|
--------------------------|--------------------------|


  E  E  E  E  E  E  E  E     E  E  E  E  E  E  E  E
--------------------------|--------------------------|
--------------------------|--------------------------|
-----2-----1-----2--1-----|--------2-----1--------4--|
-----------------------2--|--------------------------|
--0-----0-----0-----------|--------------------------|
--------------------------|--2--2-----2-----2--2-----|


  E  E  E  E  E  E  E  E     E  E  E  E  E  E  E  E
--------------------------|--------------------------|
--------------------------|--------------------------|
-----2-----1-----2--1-----|--------2-----1--------4--|
-----------------------2--|--0--0-----0-----0--0-----|
--------------------------|--------------------------|
--2-----2-----2-----------|--------------------------|


  E  E  E  E  E  E  E  E     E  E  E  E  E  E  E  E
--------------------------|--------------------------|
-----------------3--2-----|--------------------------|
-----2-----1-----------2--|--------2-----1--------4--|
--0-----0-----0-----------|--2--2-----2-----2--2-----|
--------------------------|--------------------------|
--------------------------|--------------------------|


  E  E  E  E  E  E  E  E     E  E  E  E  E  E  E  E
--------------------------|--------------------------|
--------------------------|--------------------------|
-----2-----1-----2--1--2--|--------------1-----------|
--2-----2-----2-----------|--------2-----------------|
--------------------------|--------------------------|
--------------------------|--2--2-----2-----2--2--2--|


  E  E  E  E  E  E  E  E     E  E  E  E  E  E  E  E
--------------------------|--------------------------|
--------------------------|--------------------------|
--------2-----------------|--4-----------------2-----|
--2-----------------2-----|--------------2-----------|
--------------------------|--------------------------|
-----2-----2--2--2-----2--|-----2--2--2-----2-----2--|


  E  E  E  E  E  E  E  E     E  E  E  E  E  E  E  E
--------------------------|--------------------------|
--------------------------|--------------------------|
-----------1-----2--1-----|--------2-----1--------4--|
-----2-----------------2--|--0--0-----0-----0--0-----|
--------------------------|--------------------------|
--2-----2-----2-----------|--------------------------|


  E  E  E  E  E  E  E  E     E  E  E  E  E  E  E  E
--------------------------|--------------------------|
-----------------3--2-----|--------------------------|
-----2-----1-----------2--|--------2-----1--------4--|
--0-----0-----0-----------|--2--2-----2-----2--2-----|
--------------------------|--------------------------|
--------------------------|--------------------------|


  E  E  E  E  E  E  E  E     E  E  E  E  E  E  E  E
--------------------------|--------------------------|
--------------------------|--------------------------|
-----2-----1-----2--1--2--|--------------1-----------|
--2-----2-----2-----------|--------2-----------------|
--------------------------|--------------------------|
--------------------------|--2--2-----2-----2--2--2--|


  E  E  E  E  E  E  E  E     E  E  E  E  E  E  E  E
--------------------------|--------------------------|
--------------------------|--------------------------|
--------2-----------------|--4-----------------2-----|
--2-----------------2-----|--------------2-----------|
--------------------------|--------------------------|
-----2-----2--2--2-----2--|-----2--2--2-----2-----2--|


  E  E  E  E  E  E  E  E     E  E  E  E  E  E  E  E
--------------------------|--------------------------|
--------------------------|--------------------------|
-----------1-----2--1-----|--------2-----1--------4--|
-----2-----------------2--|--0--0-----0-----0--0-----|
--------------------------|--------------------------|
--2-----2-----2-----------|--------------------------|


  E  E  E  E  E  E  E  E     W                   W
--------------------------|-------------------|-------------------|
-----------------3--2-----|-------------------|-------------------|
-----2-----1-----------2--|-------------------|-------------------|
--0-----0-----0-----------|--2----------------|--L----------------|
--------------------------|-------------------|-------------------|
--------------------------|-------------------|-------------------|


                                          PM PM    PM    PM PM
  W                   W                   E  E  E  E  E  E  E  E
-------------------|-------------------|--------------------------|
-------------------|-------------------|--------------------------|
-------------------|-------------------|--------------------------|
--L----------------|--L----------------|--------7-----6-----------|
-------------------|-------------------|-----------------------7--|
-------------------|-------------------|--5--5-----5-----5--5-----|


  PM    PM    PM             PM PM    PM    PM PM
  E  E  E  E  E  E  E  E     E  E  E  E  E  E  E  E
--------------------------|--------------------------|
--------------------------|--------------------------|
--------------------------|--------------------------|
--------------------------|--------7-----6-----------|
-----7-----4-----5--4-----|-----------------------7--|
--5-----5-----5--------5--|--5--5-----5-----5--5-----|


  PM    PM    PM             PM PM    PM    PM PM
  E  E  E  E  E  E  E  E     E  E  E  E  E  E  E  E
--------------------------|--------------------------|
--------------------------|--------------------------|
--------------------------|--------------------------|
--------------------------|--------7-----6-----------|
-----7-----4-----5--4-----|-----------------------7--|
--5-----5-----5--------5--|--5--5-----5-----5--5-----|


  PM    PM    PM             PM PM    PM    PM PM
  E  E  E  E  E  E  E  E     E  E  E  E  E  E  E  E
--------------------------|--------------------------|
--------------------------|--------------------------|
--------------------------|--------------------------|
--------------------------|--------7-----6-----------|
-----7-----4-----5--4-----|-----------------------7--|
--5-----5-----5--------5--|--5--5-----5-----5--5-----|


  PM    PM    PM             PM PM    PM    PM PM
  E  E  E  E  E  E  E  E     E  E  E  E  E  E  E  E
--------------------------|--------------------------|
--------------------------|--------------------------|
--------------------------|--------------------------|
--------------------------|--------7-----6-----------|
-----7-----4-----5--4-----|-----------------------7--|
--5-----5-----5--------5--|--5--5-----5-----5--5-----|


  PM    PM    PM             PM PM    PM    PM PM
  E  E  E  E  E  E  E  E     E  E  E  E  E  E  E  E
--------------------------|--------------------------|
--------------------------|--------------------------|
--------------------------|--------------------------|
--------------------------|--------7-----6-----------|
-----7-----4-----5--4-----|-----------------------7--|
--5-----5-----5--------5--|--5--5-----5-----5--5-----|


  PM    PM    PM             PM PM    PM    PM PM
  E  E  E  E  E  E  E  E     E  E  E  E  E  E  E  E
--------------------------|--------------------------|
--------------------------|--------------------------|
--------------------------|--------------------------|
--------------------------|--------7-----6-----------|
-----7-----4-----5--4-----|-----------------------7--|
--5-----5-----5--------5--|--5--5-----5-----5--5-----|


  PM    PM    PM             PM PM    PM    PM PM
  E  E  E  E  E  E  E  E     E  E  E  E  E  E  E  E
--------------------------|--------------------------|
--------------------------|--------------------------|
--------------------------|--------------------------|
--------------------------|--------7-----6-----------|
-----7-----4-----5--4-----|-----------------------7--|
--5-----5-----5--------5--|--5--5-----5-----5--5-----|


  PM    PM    PM             PM PM    PM    PM PM
  E  E  E  E  E  E  E  E     E  E  E  E  E  E  E  E
--------------------------|--------------------------|
--------------------------|--------------------------|
--------------------------|--------------------------|
--------------------------|--------7-----6-----------|
-----7-----4-----5--4-----|-----------------------7--|
--5-----5-----5--------5--|--5--5-----5-----5--5-----|


  PM    PM    PM             PM PM    PM    PM PM
  E  E  E  E  E  E  E  E     E  E  E  E  E  E  E  E
--------------------------|--------------------------|
--------------------------|--------------------------|
--------------------------|--------------------------|
--------------------------|--------7-----6-----------|
-----7-----4-----5--4-----|-----------------------7--|
--5-----5-----5--------5--|--5--5-----5-----5--5-----|


  PM    PM    PM             PM PM    PM    PM PM
  E  E  E  E  E  E  E  E     E  E  E  E  E  E  E  E
--------------------------|--------------------------|
--------------------------|--------------------------|
--------------------------|--------------------------|
--------------------------|--------7-----6-----------|
-----7-----4-----5--4-----|-----------------------7--|
--5-----5-----5--------5--|--5--5-----5-----5--5-----|


  PM    PM    PM             PM PM    PM    PM PM
  E  E  E  E  E  E  E  E     E  E  E  E  E  E  E  E
--------------------------|--------------------------|
--------------------------|--------------------------|
--------------------------|--------------------------|
--------------------------|--------7-----6-----------|
-----7-----4-----5--4-----|-----------------------7--|
--5-----5-----5--------5--|--5--5-----5-----5--5-----|


  PM    PM    PM
  E  E  E  E  E  E  E  E
--------------------------||
--------------------------||
--------------------------||
--------------------------||
-----7-----4-----5--4-----||
--5-----5-----5--------5--||
Tap to rate this tab
 
# A B C D E F G H I J K L M N O P Q R S T U V W X Y Z