Song name
# A B C D E F G H I J K L M N O P Q R S T U V W X Y Z

Andra And The Backbone - Sempurna tab

Sempurna By Andra And The Backbone

Turnig : E,B,G,D,A,E

Intro

             Q    E  E  E  E  E  E     Q    E  E  E  E  E  E   
E||-------|-------------------------|-------------------------|
B||-------|--3-------------3--------|--2-------------2--------|
G||-------|----------2-----------2--|----------2-----------2--|
D||-------|--0----0-----0-----0-----|--0----0-----0-----0-----|
A||-------|-------------------------|-------------------------|
E||-------|-------------------------|-------------------------|


  Q    E  E  E  E  E  E     Q    E  E  E  E  E  E     Q    E  E  E  E  E  E   
-------------------------|-------------------------|-------------------------|
--0-------------0--------|--2-------------2--------|--3-------------3--------|
----------2-----------2--|----------2-----------2--|----------2-----------2--|
--0----0-----0-----0-----|--0----0-----0-----0-----|--0----0-----0-----0-----|
-------------------------|-------------------------|-------------------------|
-------------------------|-------------------------|-------------------------|


  Q    E  E  E  E  E  E     Q    E  E  E  E  E  E     Q    E  E  E  E  E  E   
-------------------------|-------------------------|-------------------------|
--2-------------2--------|--0-------------0--------|--2-------------2--------|
----------2-----------2--|----------2-----------2--|----------2-----------2--|
--0----0-----0-----0-----|--0----0-----0-----0-----|--0----0-----0-----0-----|
-------------------------|-------------------------|-------------------------|
-------------------------|-------------------------|-------------------------|

Verse 1

  Q    E  E  E  E  E  E     Q    E  E  E  E  E  E     Q    E  E  E  E  E  E   
-------------------------|-------------------------|-------------------------|
--3-------------3--------|--2-------------2--------|--0-------------0--------|
----------2-----------2--|----------2-----------2--|----------2-----------2--|
--0----0-----0-----0-----|--0----0-----0-----0-----|--0----0-----0-----0-----|
-------------------------|-------------------------|-------------------------|
-------------------------|-------------------------|-------------------------|


  Q    E  E  E  E  E  E     Q    E  E  E  E  E  E     Q    E  E  E  E  E  E   
-------------------------|-------------------------|-------------------------|
--2-------------2--------|--3-------------3--------|--2-------------2--------|
----------2-----------2--|----------2-----------2--|----------2-----------2--|
--0----0-----0-----0-----|-------0-----------0-----|-------0-----------0-----|
-------------------------|--2----------2-----------|--2----------2-----------|
-------------------------|-------------------------|-------------------------|


  Q    E  E  E  E  E  E     Q    E  E  E  E  E  E     Q    E  E  E  E  E  E   
-------------------------|-------------------------|--2-------------2--------|
--0-------------0--------|--2-------------2--------|----------3-----------3--|
----------2-----------2--|----------2-----------2--|-------0-----------0-----|
-------0-----------0-----|-------0-----------0-----|-------------------------|
--2----------2-----------|--2----------2-----------|-------------------------|
-------------------------|-------------------------|--3----------3-----------|


  Q    E  E  E  E  E  E     Q    E  E  E  E  E  E     Q    E  E  E  E  E  E   
--0-------------0--------|--2-------------2--------|--0-------------0--------|
----------3-----------3--|----------3-----------3--|----------3--------------|
-------0-----------0-----|-------0-----------0-----|-------0-----------0--L--|
-------------------------|-------------------------|-------------------------|
-------------------------|--0----------0-----------|--0----------0-----------|
--3----------3-----------|-------------------------|-------------------------|


  Q    E  E  E  E  E  E     Q    E  E  E  E  E  E     Q    E  E  E  E  E  E   
-------------------------|-------------------------|-------------------------|
--3-------------3--------|--2-------------2--------|--0-------------0--------|
----------2-----------2--|----------2-----------2--|----------2-----------2--|
--0----0-----0-----0-----|--0----0-----0-----0-----|--0----0-----0-----0-----|
-------------------------|-------------------------|-------------------------|
-------------------------|-------------------------|-------------------------|

  Q    E  E  E  E  E  E   
-------------------------|
--2-------------2--------|
----------2-----------2--|
--0----0-----0-----0-----|
-------------------------|
-------------------------|

Verse 2

  Q    E  E  E  E  E  E     Q    E  E  E  E  E  E   
-------------------------|-------------------------|
--3-------------3--------|--2-------------2--------|
----------2-----------2--|----------2-----------2--|
--0----0-----0-----0-----|--0----0-----0-----0-----|
-------------------------|-------------------------|
-------------------------|-------------------------|

  Q    E  E  E  E  E  E     Q    E  E  E  E  E  E     Q    E  E  E  E  E  E   
-------------------------|-------------------------|-------------------------|
--0-------------0--------|--2-------------2--------|--3-------------3--------|
----------2-----------2--|----------2-----------2--|----------2-----------2--|
--0----0-----0-----0-----|--0----0-----0-----0-----|-------0-----------0-----|
-------------------------|-------------------------|--2----------2-----------|
-------------------------|-------------------------|-------------------------|


  Q    E  E  E  E  E  E     Q    E  E  E  E  E  E     Q    E  E  E  E  E  E   
-------------------------|-------------------------|-------------------------|
--2-------------2--------|--0-------------0--------|--2-------------2--------|
----------2-----------2--|----------2-----------2--|----------2-----------2--|
-------0-----------0-----|-------0-----------0-----|-------0-----------0-----|
--2----------2-----------|--2----------2-----------|--2----------2-----------|
-------------------------|-------------------------|-------------------------|


  Q    E  E  E  E  E  E     Q    E  E  E  E  E  E     Q    E  E  E  E  E  E   
--2-------------2--------|--0-------------0--------|--2-------------2--------|
----------3-----------3--|----------3-----------3--|----------3-----------3--|
-------0-----------0-----|-------0-----------0-----|-------0-----------0-----|
-------------------------|-------------------------|-------------------------|
-------------------------|-------------------------|--0----------0-----------|
--3----------3-----------|--3----------3-----------|-------------------------|


  Q    E  E  E  E  E  E     Q    E  E  E  E  E  E     Q    E  E  E  E  E  E   
--0-------------0--------|-------------------------|-------------------------|
----------3-----------3--|--3-------------3--------|--2-------------2--------|
-------0-----------0--L--|----------2-----------2--|----------2-----------2--|
-------------------------|-------0-----------0-----|-------0-----------0-----|
--0----------0-----------|--2----------2-----------|--2----------2-----------|
-------------------------|-------------------------|-------------------------|


  Q    E  E  E  E  E  E     Q    E  E  E  E  E  E 
-------------------------|-------------------------|
--0-------------0--------|--2-------------2--------|
----------2-----------2--|----------2-----------2--|
-------0-----------0-----|-------0-----------0-----|
--2----------2-----------|--2----------2-----------|
-------------------------|-------------------------|

Pre-Chorus

Q    E  E  E  E  E  E   
--5-------------0--------|
----------3-----------3--|
-------0-----------0-----|
-------------------------|
-------------------------|
--3----------3-----------|

  Q    E  E  E  E  E  E     Q    E  E  E  E  E  E     Q    E  E  E  E  E  E   
--5-------------0--------|--5-------------0--------|--5-------------0--------|
----------3-----------3--|----------3-----------3--|----------3-----------3--|
-------0-----------0-----|-------0-----------0-----|-------0-----------0-----|
-------------------------|-------------------------|-------------------------|
-------------------------|--0----------0-----------|--0----------0-----------|
--3----------3-----------|-------------------------|-------------------------|


  Q    E  E  E  E  E  E     Q    E  E  E  E  E  E     Q    E  E  E  E  E  E   
--5-------------0--------|--5-------------0--------|--5-------------0--------|
----------3-----------3--|----------3-----------3--|----------3-----------3--|
-------0-----------0-----|-------0-----------0-----|-------0-----------0-----|
-------------------------|-------------------------|-------------------------|
--2----------2-----------|--2----------2-----------|--2----------2-----------|
-------------------------|-------------------------|-------------------------|


  E   E   E  E  E  E  E  E     Q    E  E  E  E  E  E   
--2h--3p--2-----------------|--5-------------0--------|
-------------3--------------|----------3-----------3--|
----------------2-----------|-------0-----------0-----|
-------------------2--------|-------------------------|
--2-------------2-----0--L--|-------------------------|
----------------------------|--3----------3-----------|


  Q    E  E  E  E  E  E     Q    E  E  E  E  E  E     W                 
--5-------------0--------|--5-------------0--------|--0----------------|
----------3-----------3--|----------3-----------3--|-------------------|
-------0-----------0-----|-------0-----------0-----|-------------------|
-------------------------|-------------------------|-------------------|
-------------------------|--0----------0-----------|--0----------------|
--3----------3-----------|-------------------------|-------------------|

Chorus

  Q    E  E  E  E  E  E     Q    E  E  E  E  E  E     Q    E  E  E  E  E  E   
-------------------------|-------------------------|--2----------------------|
--3-------------3--------|--2-------------2--------|----------3--------------|
----------2-----------2--|----------2-----------2--|----------------0-----0--|
--0----0-----0-----0-----|-------0-----------0-----|-------0-----------0-----|
-------------------------|--0----------0-----------|-------------------------|
-------------------------|-------------------------|--3----------3-----------|


  Q    E  E  E  E  E  E     Q    E  E  E  E  E  E     Q    E  E  E  E  E  E   
--2----------------------|-------------------------|-------------------------|
----------3--------------|--3-------------3--------|--2-------------2--------|
----------------0-----0--|----------2-----------2--|----------2-----------2--|
-------0-----------0-----|--0----0-----0-----0-----|-------0-----------0-----|
-------------------------|-------------------------|--0----------0-----------|
--3----------3-----------|-------------------------|-------------------------|


  Q    E  E  E  E  E  E     Q    E  E  E  E  E  E     Q    E  E  E  E  E  E   
--2----------------------|--2----------------------|-------------------------|
----------3--------------|----------3--------------|--3-------------3--------|
----------------0-----0--|----------------0-----0--|----------2-----------2--|
-------0-----------0-----|-------0-----------0-----|-------0-----------0-----|
-------------------------|-------------------------|--2----------2-----------|
--3----------3-----------|--3----------3-----------|-------------------------|


  E   E  E  E  E  E  E  E     Q    E  E  E  E  E  E     Q    E  E  E  E  E  E   
---------------------------|--2----------------------|--2----------------------|
--2h--3--L--2--L-----------|----------3--------------|----------3--------------|
------------------2-----2--|----------------0-----0--|----------------0-----0--|
---------------------0-----|-------0-----------0-----|-------0-----------0-----|
--0------------0-----------|-------------------------|-------------------------|
---------------------------|--3----------3-----------|--3----------3-----------|


  Q    E  E  E  E  E  E     E   E  E  E  E  E  E  E     Q    E  E  E  E  E  E   
-------------------------|---------------------------|--2----------------------|
--3-------------3--------|--2h--3--L--2--L-----------|----------3--------------|
----------2-----------2--|------------------2-----2--|----------------0-----0--|
-------0-----------0-----|---------------------0-----|-------0-----------0-----|
--2----------2-----------|--0------------0-----------|-------------------------|
-------------------------|---------------------------|--3----------3-----------|


  E  E  E  E  E   E  E  E      W                   W                 
--------------2p--0--L------|-------------------|-------------------|
------------------------3~--|--L----------------|--L----------------|
-----------0----------------|-------------------|-------------------|
--------2-------------------|-------------------|-------------------|
-----2----------------------|-------------------|-------------------|
--0-------------------------|-------------------|-------------------|


  Q    E  E  E  E  E  E     Q    E  E  E  E  E  E     Q    E  E  E  E  E  E   
-------------------------|-------------------------|-------------------------|
--3-------------3--------|--2-------------2--------|--0-------------0--------|
----------2-----------2--|----------2-----------2--|----------2-----------2--|
--0----0-----0-----0-----|--0----0-----0-----0-----|--0----0-----0-----0-----|
-------------------------|-------------------------|-------------------------|
-------------------------|-------------------------|-------------------------|


  Q    E  E  E  E  E  E     Q    E  E  E  E  E  E     Q    E  E  E  E  E  E   
-------------------------|-------------------------|-------------------------|
--2-------------2--------|--3-------------3--------|--2-------------2--------|
----------2-----------2--|----------2-----------2--|----------2-----------2--|
--0----0-----0-----0-----|-------0-----------0-----|-------0-----------0-----|
-------------------------|--2----------2-----------|--2----------2-----------|
-------------------------|-------------------------|-------------------------|


  Q    E  E  E  E  E  E     Q    E  E  E  E  E  E    
-------------------------|-------------------------|
--0-------------0--------|--2-------------2--------|
----------2-----------2--|----------2-----------2--|
-------0-----------0-----|-------0-----------0-----|
--2----------2-----------|--2----------2-----------|
-------------------------|-------------------------|

Verse 3

  Q    E  E  E  E  E  E  
-------------------------|
--3-------------3--------|
----------2-----------2--|
--0----0-----0-----0-----|
-------------------------|
-------------------------|

  Q    E  E  E  E  E  E     Q    E  E  E  E  E  E     Q    E  E  E  E  E  E   
-------------------------|-------------------------|-------------------------|
--2-------------2--------|--0-------------0--------|--2-------------2--------|
----------2-----------2--|----------2-----------2--|----------2-----------2--|
--0----0-----0-----0-----|--0----0-----0-----0-----|--0----0-----0-----0-----|
-------------------------|-------------------------|-------------------------|
-------------------------|-------------------------|-------------------------|


  Q    E  E  E  E  E  E     Q    E  E  E  E  E  E     Q    E  E  E  E  E  E   
-------------------------|-------------------------|-------------------------|
--3-------------3--------|--2-------------2--------|--0-------------0--------|
----------2-----------2--|----------2-----------2--|----------2-----------2--|
-------0-----------0-----|-------0-----------0-----|-------0-----------0-----|
--2----------2-----------|--2----------2-----------|--2----------2-----------|
-------------------------|-------------------------|-------------------------|


  Q    E  E  E  E  E  E     Q    E  E  E  E  E  E     Q    E  E  E  E  E  E   
-------------------------|--2-------------2--------|--0-------------0--------|
--2-------------2--------|----------3-----------3--|----------3-----------3--|
----------2-----------2--|-------0-----------0-----|-------0-----------0-----|
-------0-----------0-----|-------------------------|-------------------------|
--2----------2-----------|-------------------------|-------------------------|
-------------------------|--3----------3-----------|--3----------3-----------|


  Q    E  E  E  E  E  E     Q    E  E  E  E  E  E     Q    E  E  E  E  E  E   
--2-------------2--------|--0-------------0--------|-------------------------|
----------3-----------3--|----------3-----------3--|--3-------------3--------|
-------0-----------0-----|-------0-----------0-----|----------2-----------2--|
-------------------------|-------------------------|-------0-----------0-----|
--0----------0-----------|--0----------0-----------|--2----------2-----------|
-------------------------|-------------------------|-------------------------|


  Q    E  E  E  E  E  E     Q    E  E  E  E  E  E     Q    E  E  E  E  E  E   
-------------------------|-------------------------|-------------------------|
--2-------------2--------|--0-------------0--------|--2-------------2--------|
----------2-----------2--|----------2-----------2--|----------2-----------2--|
-------0-----------0-----|-------0-----------0-----|-------0-----------0-----|
--2----------2-----------|--2----------2-----------|--2----------2-----------|
-------------------------|-------------------------|-------------------------|

Pre-Chorus

  Q    E  E  E  E  E  E     Q    E  E  E  E  E  E     Q    E  E  E  E  E  E   
--5-------------0--------|--5-------------0--------|--5-------------0--------|
----------3-----------3--|----------3-----------3--|----------3-----------3--|
-------0-----------0-----|-------0-----------0-----|-------0-----------0-----|
-------------------------|-------------------------|-------------------------|
-------------------------|-------------------------|--0----------0-----------|
--3----------3-----------|--3----------3-----------|-------------------------|


  Q    E  E  E  E  E  E     Q    E  E  E  E  E  E     Q    E  E  E  E  E  E   
--5-------------0--------|--5-------------0--------|--5-------------0--------|
----------3-----------3--|----------3-----------3--|----------3-----------3--|
-------0-----------0-----|-------0-----------0-----|-------0-----------0-----|
-------------------------|-------------------------|-------------------------|
--0----------0-----------|--2----------2-----------|--2----------2-----------|
-------------------------|-------------------------|-------------------------|


  Q    E  E  E  E  E  E     E   E   E  E  E   E  E   E   
--5-------------0--------|--2h--3p--2-------------------|
----------3-----------3--|-------------3----------------|
-------0-----------0-----|----------------2p--0---------|
-------------------------|-----------------------2p--0--|
--2----------2-----------|--2---------------------------|
-------------------------|------------------------------|


  Q    E  E  E  E  E  E     Q    E  E  E  E  E  E     Q    E  E  E  E  E  E   
--5-------------0--------|--5-------------0--------|--5-------------0--------|
----------3-----------3--|----------3-----------3--|----------3-----------3--|
-------0-----------0-----|-------0-----------0-----|-------0-----------0-----|
-------------------------|-------------------------|-------------------------|
-------------------------|-------------------------|--0----------0-----------|
--3----------3-----------|--3----------3-----------|-------------------------|


  W                
--0----------------|
-------------------|
-------------------|
-------------------|
--0----------------|
-------------------|

Chorus

  Q    E  E  E  E  E  E     Q    E  E  E  E  E  E   
-------------------------|-------------------------|
--3-------------3--------|--2-------------2--------|
----------2-----------2--|----------2-----------2--|
--0----0-----0-----0-----|-------0-----------0-----|
-------------------------|--0----------0-----------|
-------------------------|-------------------------|

  Q    E  E  E  E  E  E     Q    E  E  E  E  E  E     Q    E  E  E  E  E  E   
--2----------------------|--2----------------------|-------------------------|
----------3--------------|----------3--------------|--3-------------3--------|
----------------0-----0--|----------------0-----0--|----------2-----------2--|
-------0-----------0-----|-------0-----------0-----|--0----0-----0-----0-----|
-------------------------|-------------------------|-------------------------|
--3----------3-----------|--3----------3-----------|-------------------------|


  Q    E  E  E  E  E  E     Q    E  E  E  E  E  E     Q    E  E  E  E  E  E   
-------------------------|--2----------------------|--2----------------------|
--2-------------2--------|----------3--------------|----------3--------------|
----------2-----------2--|----------------0-----0--|----------------0-----0--|
-------0-----------0-----|-------0-----------0-----|-------0-----------0-----|
--0----------0-----------|-------------------------|-------------------------|
-------------------------|--3----------3-----------|--3----------3-----------|


  Q    E  E  E  E  E  E     E   E  E  E  E  E  E  E     Q    E  E  E  E  E  E   
-------------------------|---------------------------|--2----------------------|
--3-------------3--------|--2h--3--L--2--L-----------|----------3--------------|
----------2-----------2--|------------------2-----2--|----------------0-----0--|
-------0-----------0-----|---------------------0-----|-------0-----------0-----|
--2----------2-----------|--0------------0-----------|-------------------------|
-------------------------|---------------------------|--3----------3-----------|


  Q    E  E  E  E  E  E     Q    E  E  E  E  E  E     E   E  E  E  E  E  E  E   
--2----------------------|-------------------------|---------------------------|
----------3--------------|--3-------------3--------|--2h--3--L--2--L-----------|
----------------0-----0--|----------2-----------2--|------------------2-----2--|
-------0-----------0-----|-------0-----------0-----|---------------------0-----|
-------------------------|--2----------2-----------|--0------------0-----------|
--3----------3-----------|-------------------------|---------------------------|


  Q    E  E  E  E  E  E     E  E  E  E  E   E  E  E      W                 
--2----------------------|--------------2p--0--L------|-------------------|
----------3--------------|------------------------3~--|--L----------------|
----------------0-----0--|-----------0----------------|-------------------|
-------0-----------0-----|--------2-------------------|-------------------|
-------------------------|-----2----------------------|-------------------|
--3----------3-----------|--0-------------------------|-------------------|


  W                   Q    E  E  E  E  E  E     Q    E  E  E  E  E  E   
-------------------|-------------------------|-------------------------|
--L----------------|--3-------------3--------|--2-------------2--------|
-------------------|----------2-----------2--|----------2-----------2--|
-------------------|--0----0-----0-----0-----|--0----0-----0-----0-----|
-------------------|-------------------------|-------------------------|
-------------------|-------------------------|-------------------------|


  Q    E  E  E  E  E  E     Q    E  E  E  E  E  E     Q    E  E  E  E  E  E   
-------------------------|-------------------------|-------------------------|
--0-------------0--------|--2-------------2--------|--3-------------3--------|
----------2-----------2--|----------2-----------2--|----------2-----------2--|
--0----0-----0-----0-----|--0----0-----0-----0-----|-------0-----------0-----|
-------------------------|-------------------------|--2----------2-----------|
-------------------------|-------------------------|-------------------------|


  Q    E  E  E  E  E  E     Q    E  E  E  E  E  E     Q    E  E  E  E  E  E   
-------------------------|-------------------------|-------------------------|
--2-------------2--------|--0-------------0--------|--2-------------2--------|
----------2-----------2--|----------2-----------2--|----------2-----------2--|
-------0-----------0-----|-------0-----------0-----|-------0-----------0-----|
--2----------2-----------|--2----------2-----------|--2----------2-----------|
-------------------------|-------------------------|-------------------------|


  Q    E  E  E  E  E  E     Q    E  E  E  E  E  E     Q    E  E  E  E  E  E   
--2-------------2--------|--0-------------0--------|--2-------------2--------|
----------3-----------3--|----------3-----------3--|----------3-----------3--|
-------0-----------0-----|-------0-----------0-----|-------0-----------0-----|
-------------------------|-------------------------|-------------------------|
-------------------------|-------------------------|--0----------0-----------|
--3----------3-----------|--3----------3-----------|-------------------------|


  Q    E  E  E  E  E  E     Q    E  E  E  E  E  E     Q    E  E  E  E  E  E   
--0-------------0--------|-------------------------|-------------------------|
----------3-----------3--|--3-------------3--------|--2-------------2--------|
-------0-----------0--L--|----------2-----------2--|----------2-----------2--|
-------------------------|-------0-----------0-----|-------0-----------0-----|
--0----------0-----------|--2----------2-----------|--2----------2-----------|
-------------------------|-------------------------|-------------------------|


  Q    E  E  E  E  E  E     Q    E  E  E  E  E  E  
-------------------------|-------------------------|
--0-------------0--------|--2-------------2--------|
----------2-----------2--|----------2-----------2--|
-------0-----------0-----|-------0-----------0-----|
--2----------2-----------|--2----------2-----------|
-------------------------|-------------------------|

Pre-Chorus

  Q    E  E  E  E  E  E   
--5-------------0--------|
----------3-----------3--|
-------0-----------0-----|
-------------------------|
-------------------------|
--3----------3-----------|


  Q    E  E  E  E  E  E     Q    E  E  E  E  E  E     Q    E  E  E  E  E  E   
--5-------------0--------|--5-------------0--------|--5-------------0--------|
----------3-----------3--|----------3-----------3--|----------3-----------3--|
-------0-----------0-----|-------0-----------0-----|-------0-----------0-----|
-------------------------|-------------------------|-------------------------|
-------------------------|--0----------0-----------|--0----------0-----------|
--3----------3-----------|-------------------------|-------------------------|


  Q    E  E  E  E  E  E     Q    E  E  E  E  E  E     Q    E  E  E  E  E  E   
--5-------------0--------|--5-------------0--------|--5-------------0--------|
----------3-----------3--|----------3-----------3--|----------3-----------3--|
-------0-----------0-----|-------0-----------0-----|-------0-----------0-----|
-------------------------|-------------------------|-------------------------|
--2----------2-----------|--2----------2-----------|--2----------2-----------|
-------------------------|-------------------------|-------------------------|


  E   E   E  E  E   E  E   E     Q    E  E  E  E  E  E   
--2h--3p--2-------------------|--5-------------0--------|
-------------3----------------|----------3-----------3--|
----------------2p--0---------|-------0-----------0-----|
-----------------------2p--0--|-------------------------|
--2---------------------------|-------------------------|
------------------------------|--3----------3-----------|


  Q    E  E  E  E  E  E     Q    E  E  E  E  E  E     W                 
--5-------------0--------|--5-------------0--------|--0----------------|
----------3-----------3--|----------3-----------3--|-------------------|
-------0-----------0-----|-------0-----------0-----|-------------------|
-------------------------|-------------------------|-------------------|
-------------------------|--0----------0-----------|--0----------------|
--3----------3-----------|-------------------------|-------------------|

Chorus

  Q    E  E  E  E  E  E     Q    E  E  E  E  E  E     Q    E  E  E  E  E  E   
-------------------------|-------------------------|--2----------------------|
--3-------------3--------|--2-------------2--------|----------3--------------|
----------2-----------2--|----------2-----------2--|----------------0-----0--|
--0----0-----0-----0-----|-------0-----------0-----|-------0-----------0-----|
-------------------------|--0----------0-----------|-------------------------|
-------------------------|-------------------------|--3----------3-----------|


  Q    E  E  E  E  E  E     Q    E  E  E  E  E  E     Q    E  E  E  E  E  E   
--2----------------------|-------------------------|-------------------------|
----------3--------------|--3-------------3--------|--2-------------2--------|
----------------0-----0--|----------2-----------2--|----------2-----------2--|
-------0-----------0-----|--0----0-----0-----0-----|-------0-----------0-----|
-------------------------|-------------------------|--0----------0-----------|
--3----------3-----------|-------------------------|-------------------------|


  Q    E  E  E  E  E  E     Q    E  E  E  E  E  E     Q    E  E  E  E  E  E   
--2----------------------|--2----------------------|-------------------------|
----------3--------------|----------3--------------|--3-------------3--------|
----------------0-----0--|----------------0-----0--|----------2-----------2--|
-------0-----------0-----|-------0-----------0-----|-------0-----------0-----|
-------------------------|-------------------------|--2----------2-----------|
--3----------3-----------|--3----------3-----------|-------------------------|


  E   E  E  E  E  E  E  E     Q    E  E  E  E  E  E     Q    E  E  E  E  E  E   
---------------------------|--2----------------------|--2----------------------|
--2h--3--L--2--L-----------|----------3--------------|----------3--------------|
------------------2-----2--|----------------0-----0--|----------------0-----0--|
---------------------0-----|-------0-----------0-----|-------0-----------0-----|
--0------------0-----------|-------------------------|-------------------------|
---------------------------|--3----------3-----------|--3----------3-----------|


  Q    E  E  E  E  E  E     E   E  E  E  E  E  E  E     Q    E  E  E  E  E  E   
-------------------------|---------------------------|--2----------------------|
--3-------------3--------|--2h--3--L--2--L-----------|----------3--------------|
----------2-----------2--|------------------2-----2--|----------------0-----0--|
-------0-----------0-----|---------------------0-----|-------0-----------0-----|
--2----------2-----------|--0------------0-----------|-------------------------|
-------------------------|---------------------------|--3----------3-----------|


  Q    E  E  E  E  E  E     Q    E  E  E  E  E  E     Q    E  E  E  E  E  E   
--2----------------------|-------------------------|-------------------------|
----------3--------------|--3-------------3--------|--2-------------2--------|
----------------0-----0--|----------2-----------2--|----------2-----------2--|
-------0-----------0-----|--0----0-----0-----0-----|-------0-----------0-----|
-------------------------|-------------------------|--0----------0-----------|
--3----------3-----------|-------------------------|-------------------------|


  Q    E  E  E  E  E  E     Q    E  E  E  E  E  E     Q    E  E  E  E  E  E   
--2----------------------|--2----------------------|-------------------------|
----------3--------------|----------3--------------|--3-------------3--------|
----------------0-----0--|----------------0-----0--|----------2-----------2--|
-------0-----------0-----|-------0-----------0-----|--0----0-----0-----0-----|
-------------------------|-------------------------|-------------------------|
--3----------3-----------|--3----------3-----------|-------------------------|


  Q    E  E  E  E  E  E     Q    E  E  E  E  E  E     Q    E  E  E  E  E  E   
-------------------------|--2----------------------|--2----------------------|
--2-------------2--------|----------3--------------|----------3--------------|
----------2-----------2--|----------------0-----0--|----------------0-----0--|
-------0-----------0-----|-------0-----------0-----|-------0-----------0-----|
--0----------0-----------|-------------------------|-------------------------|
-------------------------|--3----------3-----------|--3----------3-----------|


  Q    E  E  E  E  E  E     E   E  E  E  E  E  E  E     Q    E  E  E  E  E  E   
-------------------------|---------------------------|--2----------------------|
--3-------------3--------|--2h--3--L--2--L-----------|----------3--------------|
----------2-----------2--|------------------2-----2--|----------------0-----0--|
-------0-----------0-----|---------------------0-----|-------0-----------0-----|
--2----------2-----------|--0------------0-----------|-------------------------|
-------------------------|---------------------------|--3----------3-----------|


  Q    E  E  E  E  E  E     Q    E  E  E  E  E  E     E   E  E  E  E  E  E  E   
--2----------------------|-------------------------|---------------------------|
----------3--------------|--3-------------3--------|--2h--3--L--2--L-----------|
----------------0-----0--|----------2-----------2--|------------------2-----2--|
-------0-----------0-----|-------0-----------0-----|---------------------0-----|
-------------------------|--2----------2-----------|--0------------0-----------|
--3----------3-----------|-------------------------|---------------------------|


  Q    E  E  E  E  E  E     Q    E  E  E  E  E  E     Q    E  E  E  E  E  E   
--2----------------------|--2----------------------|-------------------------|
----------3--------------|----------3--------------|--3-------------3--------|
----------------0-----0--|----------------0-----0--|----------2-----------2--|
-------0-----------0-----|-------0-----------0-----|-------0-----------0-----|
-------------------------|-------------------------|--2----------2-----------|
--3----------3-----------|--3----------3-----------|-------------------------|


  E   E  E  E  E  E  E  E     Q    E  E  E  E  E  E   
---------------------------|--2----------------------|
--2h--3--L--2--L-----------|----------3--------------|
------------------2-----2--|----------------0-----0--|
---------------------0-----|-------0-----------0-----|
--0------------0-----------|-------------------------|
---------------------------|--3----------3-----------|


  E  E  E  E  E   E  E  E     W                                     
--------------2s--0--L-----|-------------------|-------------------|
------------------------3--|--L----------------|-------------------|
-----------0---------------|-------------------|-------------------|
--------2------------------|-------------------|-------------------|
-----2---------------------|-------------------|-------------------|
--0------------------------|-------------------|-------------------|

Outro

  Q    E  E  E  E  E  E     Q    E  E  E  E  E  E     Q    E  E  E  E  E  E   
-------------------------|-------------------------|-------------------------|
--3-------------3--------|--2-------------2--------|--3-------------3--------|
----------2-----------2--|----------2-----------2--|----------2-----------2--|
--0----0-----0-----0-----|--0----0-----0-----0-----|--0----0-----0-----0-----|
-------------------------|-------------------------|-------------------------|
-------------------------|-------------------------|-------------------------|


  Q    E  E  E  E  E  E     Q    E  E  E  E  E  E     Q    E  E  E  E  E  E   
-------------------------|-------------------------|-------------------------|
--2-------------2--------|--3-------------3--------|--2-------------2--------|
----------2-----------2--|----------2-----------2--|----------2-----------2--|
--0----0-----0-----0-----|-------0-----------0-----|-------0-----------0-----|
-------------------------|-------------------------|-------------------------|
-------------------------|--3----------3-----------|--3----------3-----------|


  Q    E  E  E  E  E  E     Q    E  E  E  E  E  E     Q    E  E  E  E  E  E   
-------------------------|-------------------------|-------------------------|
--3-------------3--------|--2-------------2--------|--3-------------3--------|
----------2-----------2--|----------2-----------2--|----------2-----------2--|
-------0-----------0-----|-------0-----------0-----|--0----0-----0-----0-----|
-------------------------|-------------------------|-------------------------|
--0----------0-----------|--0----------0-----------|-------------------------|


  Q    E  E  E  E  E  E     Q    E  E  E  E  E  E     Q    E  E  E  E  E  E   
-------------------------|-------------------------|-------------------------|
--2-------------2--------|--3-------------3--------|--2-------------2--------|
----------2-----------2--|----------2-----------2--|----------2-----------2--|
--0----0-----0-----0-----|--0----0-----0-----0-----|--0----0-----0-----0-----|
-------------------------|-------------------------|-------------------------|
-------------------------|-------------------------|-------------------------|


  Q    E  E  E  E  E  E     Q    E  E  E  E  E  E     Q    E  E  E  E  E  E   
-------------------------|-------------------------|-------------------------|
--3-------------3--------|--2-------------2--------|--3-------------3--------|
----------2-----------2--|----------2-----------2--|----------2-----------2--|
--0----0-----0-----0-----|--0----0-----0-----0-----|--0----0-----0-----0-----|
-------------------------|-------------------------|-------------------------|
-------------------------|-------------------------|-------------------------|


                                     ^                                  
  Q    E  E  E  E  E  E     H        H           H                      
-------------------------|--------------------|-----------|-----------||
--2-------------2--2-----|-----------3--------|--L--------|-----------||
----------2-----------2--|-----------2--------|--L--------|-----------||
--0----0-----0-----0--0--|-----------0--------|--L--------|-----------||
-------------------------|--------------------|-----------|-----------||
-------------------------|--------------------|-----------|-----------||




Duration Legend
---------------
W - whole
H - half
Q - quarter
E - 8th
S - 16th
T - 32nd
X - 64th
. - note dotted
|-n-|  - n-tuplets


Tablature Legend
----------------
L - tied note
x - dead note
g - grace note
(n) - ghost note
> - accentuded note
NH - natural harmonic
AH - artificial harmonic
TH - tapped harmonic
SH - semi harmonic
PH - pitch harmonic
h - hammer on
p - pull off
b - bend
br - bendRelease
pb - preBend
pbr - preBendRelease
brb - bendReleaseBend
\n/ - tremolo bar dip
\n - tremolo bar dive
-/n - tremolo bar Release up
/n\ - tremolo bar inverted dip
/n - tremolo bar return
-\n - tremolo bar Release down
S - shift slide
s - legato slide
/ -  slide into from below or out of upwards
\ -  slide into from above or out of downwards
~ - vibrato
W - wide vibrato
tr - trill
TP - tremolo picking
T - tapping
S - slap
P - pop
< - fade in
^ - brush up
v - brush down
Tap to rate this tab
# A B C D E F G H I J K L M N O P Q R S T U V W X Y Z