Guitaretab - guitar tabs
Song name
# A B C D E F G H I J K L M N O P Q R S T U V W X Y Z

Andra And The Backbone - Sempurna tab

Tabbed by ttllvfsh

G  D  C  D
INTRO
e|-3-----3--2-----2--0-----0--2-----2--|
B|-3---3-3--3---3-3--1---1-1--3---3-2--|
G|----0-------0--------0--------0------|  x2
D|-------------------------------------|
A|-------------------------------------|
E|-------------------------------------|


VERSE(x2)
e|-3-----3--2-----2--0-----0--2-----2--|
B|-3---3-3--3---3-3--1---1-1--3---3-2--|
G|----0-------0--------0--------0------|  x2
D|-------------------------------------|
A|-------------------------------------|
E|-------------------------------------|

e|-8-----8--7-----7--8-----8--7-----7--|
B|-8---8-8--8---8-8--8---8-8--8---8-8--|
G|---0--------0--------0--------0------|  
D|-------------------------------------|
A|-------------------------------------|
E|-------------------------------------|

e|-3-----3--2-----2--0-----0--2-----2--|
B|-3---3-3--3---3-3--1---1-1--3---3-2--|
G|----0-------0--------0--------0------|
D|-------------------------------------|
A|-------------------------------------|
E|-------------------------------------|


PRE-CHORUS
e|-3-----3--2-----2--0-----0--2-----2--|
B|-3---3-3--3---3-3--3---3-3--3---3-2--|
G|----0-------0--------0--------0------|  x2
D|-------------------------------------|
A|-------------------------------------|
E|-------------------------------------|
[ Tab from: http://www.guitaretab.com/a/andra-and-the-backbone/92368.html ]
e|-3-----3--2-----2--0-----0--2-------|
B|-3---3-3--3---3-3--3---3-3--3-------|
G|----0-------0--------0--------------|
D|------------------------------------|
A|------------------------------------|
E|------------------------------------|


CHORUS
   G 	   D       C        D 	 
e|-8-----8-7h8-7--8-----8--8-----8----|
B|-8---8-8---------8---8-8--8---8-8----|
G|---0---------------0--------0--------|   X3
D|-------------------------------------|
A|-------------------------------------|
E|-------------------------------------|
   G 	  D       C        	 
e|-8-----8-7h8-7--8-----8----------8-6----|
B|-8---8-8---------8---8-8--------8-----9--|
G|---0---------------0----------0----------|
D|----------------------------0------------|
A|--------------------------0--------------|
E|-----------------------------------------|

e|-3-----3--2-----2--0-----0--2-----2--|
B|-3---3-3--3---3-3--3---3-3--3---3-2--|
G|----0-------0--------0--------0------|  x2
D|-------------------------------------|
A|-------------------------------------|
E|-------------------------------------|

VERSE
PRE-CHORUS
CHORUS

INTERLUDE
e|-8-----8--7-----7--8-----8--7-----7--|
B|-8---8-8--8---8-8--8---8-8--8---8-8--|
G|---0--------0--------0--------0------|  
D|-------------------------------------|
A|-------------------------------------|
E|-------------------------------------|

e|-3-----3--2-----2--0-----0--2-----2--|
B|-3---3-3--3---3-3--1---1-1--3---3-2--|
G|----0-------0--------0--------0------|
D|-------------------------------------|
A|-------------------------------------|
E|-------------------------------------|

PRE-CHORUS
CHORUS x2

Tis is my first tab
Do email me for any comment
ttllvfsh@hotmail.com
Related for Sempurna tab