Song name
# A B C D E F G H I J K L M N O P Q R S T U V W X Y Z

Andraste - Jotunheim tab

----------------------------------------------------------------------------
                            Andraste - Jotunheim
                             Folk - Death Metal
----------------------------------------------------------------------------

This is my first tab, made by myself, so i wish it is the most correct possible =)

------------------------------------------------|
------------------------------------------------|
---9-9-7---------7-----------------7-9-10-9-7-9-|
-7-------10-9-10---10-7------10-10--------------|
------------------------10-8--------------------|
------------------------------------------------|

-------------------------------------------------|
-------------------------------------------------|
----9-9-7---------7-----------------7-9-7--------|
--7-------10-9-10---10-7------10-10-------10-9-7-|
-------------------------10-8--------------------|
-------------------------------------------------|

--------------------------------------------------------|
------------------------------------------8-10-8--------|
---9-9-7---------7-----------------7-9-10--------10-9-7-|
-7-------10-9-10---10-7------10-10----------------------|
------------------------10-8----------------------------|
--------------------------------------------------------|

------------------------------------------------|
------------------------------------------------|
---9-9-7---------7----9-7----7-9-7--------------|
-7-------10-9-10---10-----10--------10-9-7----7-|
-------------------------------------------10---|
------------------------------------------------|

-----------------------------------------------------------------------------|
-10-10-12-13-12-10-12-13-12-10-----------------------------------------------|
-------------------------------12-9-10-9---------9---------------------------|
-----------------------------------------12-10-9---10-9--------10-9----------|
----------------------------------------------------------12-12-------12-10--|
-----------------------------------------------------------------------------|

(continue)

---------------------------------------------|
---------------------------------------------|
---------------------------------------------|
-------10-9-------------10-9-----------------|
-12-12------12-10-12-12------12-10-8-8-10-10-|
---------------------------------------------|

Then comes the solo, but for the moment i think it's too much complicated =)

I wish you will like this tab like i do XD

Andraste Offcial Website : http://andraste.co.uk/
Tap to rate this tab
 
# A B C D E F G H I J K L M N O P Q R S T U V W X Y Z