Guitaretab - guitar tabs
Song name
# A B C D E F G H I J K L M N O P Q R S T U V W X Y Z

Andre Hehanusa - Karena Kutahu Engkau Begitu tab

Karena Kutahu Engkau Begitu - Andre Hehanusa

bwat yang mo kasih koreksi
E-mail : magnet18_lyricist@hotmail.com
Intro

e|-------------------------------------------------------------3-----------3---------3--------3--|
B|------------0h1----------3--3-3----0h1-0------------5------5----3------3--2-----2--1----1------|
G|------------------0-0h2-----2-2------------0h2 0-----------------------------------------------|
D|---------0-------------------------------------------------------------------------------------|
A|---------------------------------------------------------3-----------2----------0--------0-----|
E|0h2h3-----------------------2-2----------------------------------------------------------------|

e|-------------------------------------------------------3-----------3---------3-------3-3--------------|
B|---------0h1----------3--3-3----0h1-0------------5---5----3------3--2-----2----1-1----------3---------|
G|---------------0-0h2-----2-2------------0h2 0--------------------------------------------------0------|
D|------0--------------------------------------------------------------------------------------------0--|
A|---------------------------------------------------3-----------2----------0----------0-0--------------|
E|0h2h3--------------------2-2--------------------------------------------------------------------------|

Verse 1

e|---------------------------------------0--------------3-----------3---------3-------3-3---|
B|------------0h1----------3--3-3-----0----------5------5----3------3--2-----2----1-1-------|
G|------------------0-0h2-----2-2-----0-----------------------------------------------------|
D|---------0--------------------------------------------------------------------------------|
A|--------------------------------------------------3-----------2----------0-----------0-0--|
E|3-----------------------------2-2----0----------------------------------------------------|

e|---------------------------------------0--------------3-----------3---------3-------3-3---|
B|------------0h1----------3--3-3-----0----------5------5----3------3--2-----2----1-1-------|
G|------------------0-0h2-----2-2-----0-----------------------------------------------------|
D|---------0--------------------------------------------------------------------------------|
A|--------------------------------------------------3-----------2----------0-----------0-0--|
E|3-----------------------------2-2----0----------------------------------------------------|

Chorus 1

e|------------0---2-2-------------0-------------------------0----2-2--------5-2-3---------------|
B|------------1---1-1---3-3-3--------0-0h1/3\1----------1----1-1----3------------0-1/3\1--------|
G|------------0---2-2----------------------------------------0----2-2---------------------------|
D|-----------------0-0---------------------------------------------0-0--------------------2/4\2-|
A|-0h2h3---------------2-2-2-------------------0h2h3-----------------2--------------------------|
E|----------------------------------0-----------------------------------------------0-----------|
[ Tab from: http://www.guitaretab.com/a/andre-hehanusa/125589.html ]
e|--------0----2-2---------------------------3-3---3---------3-3--3-------------3-3--3--2/3-2-0---------------|
B|--------1----1-1--3-0-2-3-------0-1--------1-1---1---------3-3--3-------------3-3--3-------------3----3-----|
G|--------0----2-2--------------2------------0-0--0---------0-0--0-------------0-0--0----------------0----0--|
D|--------------0-0-------------------------------------------------------------------------------------------|
A|-0h2h3-----------2--------------------3---------3-----0-2------2---0h2h3--------3---------------------------|
E|---------------------------0--------------------------------------------------------------------------------|

Verse 2

e|---------------------------------------0--------------3-----------3---------3-------3-3---|
B|------------0h1----------3--3-3-----0----------5------5----3------3--2-----2----1-1-------|
G|------------------0-0h2-----2-2-----0-----------------------------------------------------|
D|---------0--------------------------------------------------------------------------------|
A|--------------------------------------------------3-----------2----------0-----------0-0--|
E|0h2h3-----------------------2-2----0------------------------------------------------------|

e|---------------------------------------0--------------3-----------3---------3-------3-3---|
B|------------0h1----------3--3-3-----0----------5------5----3------3--2-----2----1-1-------|
G|------------------0-0h2-----2-2-----0-----------------------------------------------------|
D|---------0--------------------------------------------------------------------------------|
A|--------------------------------------------------3-----------2----------0-----------0-0--|
E|0h2h3-----------------------2-2----0------------------------------------------------------|

Chorus 2

e|------------0---2-2-------------0------------------------------0----2-2--------5-2-3----------------|
B|------------1---1-1---3-3-3--------0-0h1/3\1---------------1----1-1----3------------0-1/3\1---------|
G|------------0---2-2---------------------------------------------0----2-2----------------------------|
D|-----------------0-0--------------------------------------------------0-0--------------------2/4\2--|
A|-0h2h3---------------2-2-2------------------------0h2h3-----------------2---------------------------|
E|----------------------------------0----------------------------------------------------0------------|

e|-------0----2-2---------------------------3-3---3---------3-3--3-------------3-3--3--2/3-2-0------------|
B|-------1----1-1--3-0-2-3-------0-1-----1-1---1---------3-3--3-------------3-3--3-------------3----3-----|
G|-------0----2-2--------------2------------0-00---------0-0--0-------------0-0--0----------------0----0-|
D|-------------0-0----------------------------------------------------------------------------------------|
A|-0h2h3----------2--------------------3---------3-----0-2------2---0h2h3--------3------------------------|
E|--------------------------0-----------------------------------------------------------------------------|

Verse 1

Kuyakin dalam hatiku kau satu yang kuperlu
Kurasa hanya dirimu yang membuatku rindu

Chorus 1

Bila saat nanti kau milikku kuyakin cintamu
Takkan terbagi takkan berpaling
Karena kutahu engkau begitu
Karena kutahu engkau begitu
Verse 2

Hingga ku pasti menunggu selama apapun itu
Demi cinta yang kurasakan yang hanyalah kepadamu

Chorus 2

Percayalah ku sungguh-sungguh mengatakan semua
Yakinkan hatimu kau milikku
Karena kutahu engkau begitu
Karena kutahu engkau begitu

Woouooooh,...
Na na na na na

Back to chorus 1

Back to chorus 2

Then,..

e|-------------------------------------------------------------3-----------3---------3--------3---------|
B|------------0h1----------3--3-3----0h1-0------------5------5----3------3--2-----2--1----1-------------|
G|------------------0-0h2-----2-2------------0h2 0------------------------------------------------------|
D|---------0--------------------------------------------------------------------------------------------|
A|---------------------------------------------------------3-----------2----------0--------0------------|
E|0h2h3-----------------------2-2--------------------------------------------------------------------3--|