Song name
# A B C D E F G H I J K L M N O P Q R S T U V W X Y Z

Andre Nickatina - Ayo For Yayo tab

|---------------------------------------------------------------------|
		     Andre Nickatina - Ayo For Yayo
|---------------------------------------------------------------------|
Tabbed by: BanjoHero21 (Jacob K.)
Email: Teh437@yahoo.com

100% Accurate tab and rhythm. Please rate (5 STARS!)

Tuning: Standard

e|------------------2----2---2---2----2----2------5---------4--------|
B|---2--2-----2------2----2-------2----2------------5---------5------|
G|--------2----------------------------------------------------------|
D|-------------------------------------------------------------------|
A|---------------2-----2---2---2----2----2---------------------------|
E|-2--------2-----------------------------------0-------0-4-------0--|
Tap to rate this tab
# A B C D E F G H I J K L M N O P Q R S T U V W X Y Z