Song name
# A B C D E F G H I J K L M N O P Q R S T U V W X Y Z

Andre Nickatina - Ayo For Yayo tab

(I decided to try tabbing this, since the other tab doesn't match the track)

Notes in bass line: G, C, F, Bb

On first listen, the part is seemingly:
e|-------------------------6---5--|
B|-3--3--3-8--8--8-8--8--8--6---5-|
G|--3--3----8--8----8--8----------|
D|--------------------------------|
A|--------------------------------|
E|3--3--3-8--8--8-8--8--8-1---6---|
& repeat...

(This part is very difficult...
e|-6-|
B|--6|
G|---|
D|---|
A|---|
E|1--|
You can do this instead...
e|-6-|
B|--6|
G|---|
D|---|
A|8--|
E|---|  )

That works, except on closer listening, the part is more complicated.
(I would guess it's an overdubbing of the same guitar doing two parts, bass
and melody. Nonetheless, I tabbed it as if it's one part. I assume people
could play it as one part; I certainly cannot.) Something like:
e|-------------------------6---5---|
B|--3-3----8--8--8-8--8--8--6---5--|
G|-3---3----8--8----8--8-----------|
D|5-------X--X--X-X--X--X-----8----|
A|------------------------8--------|
E|3--33--38--88--88--88--81--16--6-|
& repeat...

PLEASE NOTE: "X" is NOT A SCRATCH, but a ROMAN NUMERAL denoting the TENTH
FRET! (I did it to save space/me the trouble of converting to fit "10")

(And it makes sense, assuming every - is understood to be a quarter note, or
if you listen to the track...)
Tap to rate this tab
# A B C D E F G H I J K L M N O P Q R S T U V W X Y Z