Song name
# A B C D E F G H I J K L M N O P Q R S T U V W X Y Z

Andre Nickatina - Ayo For Yayo tab

|---------------------------------------------------------------------|
                     Andre Nickatina - A Yo
|---------------------------------------------------------------------|
Tabbed by: fnljstce
Email: pjschlein@gmail.com

 I tried all the other tabs, but they all just seemed a little off to me. Basically, I 
just sub'd the heavy F# and B for lighter ones. The ones in parenthesis are ones I 
sometimes leave out-sounds goo either way.
Tuning: Standard

e|------------------------------------------------------5---------4--|
B|---2--2-----(2)---7-----7-----(7)----7-----7-----7------5---------5|
G|--------2-----------7-----7------------7-----7---------------------|
D|----(4)--4------------9-----9------------9-----9-------------------|
A|-------------------------------------------------------------------|
E|-2--------------7-----------------7-----------------0------0-4-----|
Tap to rate this tab
 
# A B C D E F G H I J K L M N O P Q R S T U V W X Y Z