Song name
# A B C D E F G H I J K L M N O P Q R S T U V W X Y Z

Andre Nickatina - God And The Stripper tab

artist: ANDRE NICKATINA 
song: THE GOD AND THE STRIPPER (Guitar Version)
album: CONVERSATIONS WITH A DEVIL
composed guitar tablature by: ROBERTO DELGDAILLO

E-Standard tuning.

The intro to this song is basically the whole song, nothing changes
throughout the whole song; just repetition. Since there's no chord 
rogressions requiring open string, this song can also be played on a
D#/Eb/Half-Step Down tuning as well, doesn't really matter.

You most likely know this for those who don't -
"H" in front of a note means hammer in the note
"P" in front of a note means pull off the note

Have fun!

E|---4-6-7--4-6---4---------------------------------|
B|-4------------7----4-5---4------------------------|
G|-----------------------6---4-6---4----------------|
D|-------------------------------7---6-h7-p6-p4-----|
A|----------------------------------------------6---|
E|--------------------------------------------------|

          F#-Major7
E|------------2---------2------2-------4----|
B|-2---3------3-------3------3-------2---2--|
G|---4---4----4-----4------4-------4--------|
D|------------4---4------4-------4----------|
A|------------x-----------------------------|
E|------------x-----------------------------|


E|------------------------------------------|
B|-------5-------5-----------4-4-4---2-2-2--|
G|-----6-------6---------3------------------|
D|---6-------6---------4--------------------|
A|-4-------4---------5----------------------|
E|-----------------5------------------------|


...and repeat over and over. That's the whole jam. Thanks for checking
out my guitar tablature version of this song. Hope it helped you out.
Take care.
Tap to rate this tab
# A B C D E F G H I J K L M N O P Q R S T U V W X Y Z