Song name
# A B C D E F G H I J K L M N O P Q R S T U V W X Y Z

Andre Nickatina - Mind Full Of Hatred tab

-----------------------------------------------------------------------------
                   Mind Full of Hatred - Andre Nickatina
-----------------------------------------------------------------------------
Album: I Hate You With A Passion
Year:1995
Tabbed by: Istarii
E-mail: istariimusic@hotmail.com

Tuning: Standard


Figure 1.                         End Fig. 1

e|-----------------------------------------|
B|-----------------------------------------|
G|-----------------------------------------|
D|----------------------5~--4~~~~~~--------|
A|-7~--6~~~~~~~~----3-0----------------3-0-|
E|----------------5------------------5-----|



Fig. 2                 (Fades Out) End Fig. 2

e|-20--19--18--17--16--15--13--12-----------|
B|---19--18--17--16--15--14--13--11---------|
G|------------------------------------------|
D|------------------------------------------|
A|------------------------------------------|
E|------------------------------------------|

Fig. 3

e|-20--19--18--17--16--15--13--12--11--10-9-8-7-6-5--|
B|---19--18--17--16--15--14--13--11--10--9-8-7-6-5-4-|
G|---------------------------------------------------|
D|---------------------------------------------------|
A|---------------------------------------------------|
E|---------------------------------------------------|

                      (Gradually Fades Out) End Fig. 3

e|-20--19--18--17--16--15--13--12--11--10-9-8-7-6-5--|
B|---19--18--17--16--15--14--13--11--10--9-8-7-6-5-4-|
G|---------------------------------------------------|
D|---------------------------------------------------|
A|---------------------------------------------------|
E|---------------------------------------------------|


Fig. 1 = Verses
Fig. 2 = First Break
Fig. 3 = Second Break


Tap to rate this tab
# A B C D E F G H I J K L M N O P Q R S T U V W X Y Z