Song name
# A B C D E F G H I J K L M N O P Q R S T U V W X Y Z

Andre Nickatina - Ayo For Yayo tab

So get this...  I was playing the guitar, and I really thought this song had a real cool 
part, so I decided to learn it.  Well, I think this sounds pretty good...  Here it goes...

-------------------------------------------------------------------------------
			     AYO FOR YAYO - Andre Nikatina
-------------------------------------------------------------------------------
Tabbed by:  John Brammer
Email:  BrammerSkater@yahoo.com

Tuning:

e|-------------------------------------------------------------------------|
B|---------------------------------7----7----7---------7-----7----7--------|
G|------------------------------------7----7---------------7----7----------|
D|---------7-------7------7----9---------------------9---------------------|
A|----9---------------9----------------------------------------------------|
E|-------------------------------------------------------------------------|

e|--------5----------4-----------------------------------------------------|
B|-------------------------------------------------------------------------|
G|-------------------------------------------------------------------------|
D|---9---------9-----------------------------------------------------------|
A|-------------------------------------------------------------------------|
E|-------------------------------------------------------------------------|
Tap to rate this tab
# A B C D E F G H I J K L M N O P Q R S T U V W X Y Z