Song name
# A B C D E F G H I J K L M N O P Q R S T U V W X Y Z

Andrea Bocelli - Con Te Partiro tab

Andrea Bocelli  Con te Partiro Instrumental
Standard Tuning

Capo 3rd

Intro: 
E|----------------------------------------------------------|
B|---/8--7-------8--7---------------------------------------|
G|----------7----------7---4--7-------5--4------------------|
D|---------------------------------7--------7--5--4---------|
A|----------------------------------------------------------|
E|----------------------------------------------------------|

Verse 1:
E|-----------------------|---------------------------------------|
B|-----------------------|---------------------------------------|
G|-----------------------|--------------2--------2--4--5--4------|
D|---------2-----2--4--2-|--4--5--4--5-----5--2------------------|
A|---3--5-----5----------|---------------------------------------|
E|-----------------------|---------------------------------------|

E|-----------------------|---------------------------------------|
B|-----------------------|---------------------------------------|
G|-----------------------|--------------2--------2--4--5--4------|
D|---------2-----2--4--2-|--4--5--4--5-----5--2------------------|
A|---3--5-----5----------|---------------------------------------|
E|-----------------------|---------------------------------------|

E|--------------------------|--------------------|-----------------|
B|--------------------------|--------------------|-----------------|
G|----------------5--4------|--------------------|-----------------|
D|----------------------2---|---2---2--4------0--|---2-------------|
A|---5--4--2--4-------------|--------------------|------5--5---5---|
E|--------------------------|--------------------|-----------------|

E|-----------------------------------------------------------------|
B|-----------------------------------------------------------------|
G|-----------------------------4--5--------------------------------|
D|---5--4----------------------------5--5--4-----------------5--4--|
A|-----------5--5--5--5--5--5-----------------5--5--7--5--5--------|
E|-----------------------------------------------------------------|

E|-----------------------------------------|
B|-----------------------------------------|
G|--2----------2--4--5---------------------|
D|--------2-------------5--5--5--4---------|
A|-----------------------------------------|
E|-----------------------------------------|

Chorus:
E|-------------------------------------------------------------|
B|-------------------------------------------------------------|
G|-------------------------------------------------------------|
D|--------5----4---7----5-----7--9--9--9---9---7---10--9--5----|
A|---5---------------------------------------------------------|
E|-------------------------------------------------------------|

E|----------------------------------------------------------|
B|---/8--7-------8--7---------------------------------------|
G|----------7----------7---4--7-------5--4------------------|
D|---------------------------------7--------7--5--4---------|
A|----------------------------------------------------------|
E|----------------------------------------------------------|

E|-------------------------------------------------------------|
B|-------------------------------------------------------------|
G|-------------------------------------------------------------|
D|--------5----4---7----5-----7--9--9--9---9---7---10--9--5----|
A|---5---------------------------------------------------------|
E|-------------------------------------------------------------|

E|----------------------------------------------------------|
B|---/8--7-------8--7---------------------------------------|
G|----------7----------7---4--7-------5--4------------------|
D|---------------------------------7--------7--5--4---------|
A|----------------------------------------------------------|
E|----------------------------------------------------------|

Verse 2:
E|-----------------------|---------------------------------------|
B|-----------------------|---------------------------------------|
G|-----------------------|--------------2--------2--4--5--4------|
D|---------2-----2--4--2-|--4--5--4--5-----5--2------------------|
A|---3--5-----5----------|---------------------------------------|
E|-----------------------|---------------------------------------|

E|-----------------------------------------------------------|
B|-----------------------------------------------------------|
G|---------------------------2------4--2--4--4---------------|
D|---------2-----2--4--2--4------5--------------0------------|
A|---3--5-----5----------------------------------------------|
E|-----------------------------------------------------------|

Chorus:
E|-------------------------------------------------------------|
B|-------------------------------------------------------------|
G|-------------------------------------------------------------|
D|--------5----4---7----5-----7--9--9--9---9---7---10--9--5----|
A|---5---------------------------------------------------------|
E|-------------------------------------------------------------|

E|----------------------------------------------------------|
B|---/8--7-------8--7---------------------------------------|
G|----------7----------7---4--7-------5--4------------------|
D|---------------------------------7--------7--5--4---------|
A|----------------------------------------------------------|
E|----------------------------------------------------------|

E|-------------------------------------------------------------|
B|-------------------------------------------------------------|
G|-------------------------------------------------------------|
D|--------5----4---7----5-----7--9--9--9---9---7---10--9--5----|
A|---5---------------------------------------------------------|
E|-------------------------------------------------------------|

E|----------------------------------------------------------|
B|---/8--7-------8--7---------------------------------------|
G|----------7----------7---4--7-------5--4------------------|
D|---------------------------------7--------7--5--4---------|
A|----------------------------------------------------------|
E|----------------------------------------------------------|

E|--------------------------------------------------------------------|
B|--------------------------------------------------------------------|
G|--------------------------------------------------------------------|
D|-------7--7----6--9--7------9--11--11--11--11--11----9---12--11--7--|
A|---/7---------------------------------------------------------------|
E|--------------------------------------------------------------------|

E|----------------------------------------------------|
B|----/10--9------10--9-------------------------------|
G|------------9----------9---6--9------7--6-----------|
D|----------------------------------9--------9--7-----|
A|----------------------------------------------------|
E|----------------------------------------------------|

E|--------------------------------------------------------------------|
B|--------------------------------------------------------------------|
G|--------------------------------------------------------------------|
D|-------7--7----6--9--7------9--11--11--11--11--11----9---12--11--7--|
A|---/7---------------------------------------------------------------|
E|--------------------------------------------------------------------|

E|----------------------------------------------|
B|----/10--9------10--9-------------------------|
G|------------9----------9---6--9---11--13--14--|
D|----------------------------------------------|
A|----------------------------------------------|
E|----------------------------------------------|
Tap to rate this tab
 
# A B C D E F G H I J K L M N O P Q R S T U V W X Y Z