Song name
# A B C D E F G H I J K L M N O P Q R S T U V W X Y Z

Andrea Bocelli - Ave Maria Gulio Caccini chords

Highlighted       Show chord diagrams
Intro ( CAPO 1 )

This Tab is made by me...

--|---------------------------------------------------------------------|
--|---------------------------------------------------------------------|
--|-------------0---4--4--4p2----------2---2----2h4p2-----0-------------|
--|---2----2---------------------0--4-------------------------4---------|
--|---2-----------------------------------------------------------------|
--|---0-----------------------------------------------------------------|


--|---------------------------------------------------------------------|
--|---------------------------------------------------------------------|
--|---------0---4---4---2---0---------------0--------------4---2---0----|
--|----2--------------------------4-----2----------4------------------4-|
--|---------------------------------------------------------------------|
--|---------------------------------------------------------------------|

Intro Chords (Capo 1)

Em - C - D - Bm - C - Am - 
F# - B7

Verse (Capo 1) :


Em - C - D - Bm - C - Am - 
F# - B7

Em - C - D - Bm - C    Am - 
B7 - Em
Tap to rate this tab
# A B C D E F G H I J K L M N O P Q R S T U V W X Y Z