Song name
# A B C D E F G H I J K L M N O P Q R S T U V W X Y Z

Andrea Corr - Ten Feet High tab

Help us improve GuitareTab! Take a short survey!
Tabbed on the acoustic performances. If you have trouble figuring out the rhythm, listen to the song.
It's a very good song to play, credit to Andrea Corr and Anto Drennan.

It's not a 100% correct, but it's an effort :). Email, if you have questions.


-------------------------------------------------------------------------------
			     TEN FEET HIGH - Andrea Corr
-------------------------------------------------------------------------------
Tabbed by: a m m a r a 	
Email:ammara.rounaq@gmail.com

Tuning: Standard

^= Upstroke      v= Downstroke


INTRO: (pick bass note with pick and pluck the rest soflty with fingers)
    Am          Am?         G           Am  

e|-----------------------------------------------------------|
B|--1--1--1--1--1--1--1--1--0--0--0--0--1--1--1--1-----------|
G|--2--2--2--2--2--2--2--2--4--4--4--4--2--2--2--2-----------|  x2
D|--2--2--2--2--0--0--0--0--5--5--5--5--2--2--2--2-----------|
A|--0-----------------------------------0--------------------|
E|--------------2-----------3--------------------------------|


VERSE:
    G                          D              D/F#                      G

e|--3----------3---------------2--2-----------2--------2----------------3-------3-----------------|
B|--3----------3---------------3--3-----------3--------3----------------3-------3-----------------|
G|--0----------0---------------2--2-----------2--------2----------------0-------0-----------------|
D|--0----------0---------------0--0-----------0--------0----------------0-------0-----------------|
A|--2----------2--------------------------------------------------------2-------2-----------------|
E|--3----------3------------------------------2--------2----------------3-------3-----------------|
    You ask me all kinds of questions, Like I . . I've got something to hide 

    Am                        Bm7     Em         Dsus2 
                                            ^v^       ^ 
e|--0---------------0---------2--2----0--0--000--0-0-00----------------------|
B|--2---------------2---------3--3----0--0--000--3-3-33----------------------|
G|--2---------------2---------2--2----0--0--000--0-0-00----------------------|
D|--1---------------1---------4--4----2--2--222--4-4-44----------------------|
A|--0---------------0---------2--2----2--2--222--5-5-55----------------------|
E|------------------------------------0--0--000------------------------------|
   And I don't know why this all began


  
    G                          D              D/F#              G

e|--3----------3---------------2--2-----------2--------2--------3-------3-----------------|
B|--3----------3---------------3--3-----------3--------3--------3-------3-----------------|
G|--0----------0---------------2--2-----------2--------2--------0-------0-----------------|
D|--0----------0---------------0--0-----------0--------0--------0-------0-----------------|
A|--2----------2------------------------------------------------2-------2-----------------|
E|--3----------3------------------------------2--------2--------3-------3-----------------|
   You used to love me for freedom, Said you'd climb aboard and fly


    Am                         Bm7         Em         Dsus2 Em7
                                                 ^v^     ^ 
e|--0---------------0----------2--2--------0--0--000--0-00--3-------------------|
B|--2---------------2----------3--3--------0--0--000--3-33--3-------------------|
G|--2---------------2----------2--2--------0--0--000--0-00--0-------------------|
D|--1---------------1----------4--4--------2--2--222--4-44--2-------------------|
A|--0---------------0----------2--2--------2--2--222--5-55--2-------------------|
E|-----------------------------------------0--0--000--------0-------------------|
   Now we're on the ground and I'm locked in




CHORUS:
(I haven't tabbed out the rhythm for the chorus, listen to the song, it's easy to figure out.)

    C                                  Dsus2

e|--0----------------------------------0-------------------------------------|
B|--1----------------------------------2-------------------------------------|
G|--0----------------------------------3-------------------------------------|
D|--2----------------------------------0-------------------------------------|
A|--3------------------------------------------------------------------------|
E|--0------------------------------------------------------------------------|

    I don't wanna lie, Saying it's alright


                     Em7                              Cmaj7     Dsus2

e|-------------------3--------------------------------0---------0------------|
B|-------------------3--------------------------------0---------3------------|
G|-------------------0--------------------------------0---------0------------|
D|-------------------2--------------------------------2---------4------------|
A|-------------------2--------------------------------3---------5------------|
E|-------------------0-------------------------------------------------------|
   Staring at the walls round our lives, And they're ten feet high  


         C      Dsus2   Em

e|-------0------0-------0----------------------------------------------------|
B|-------1------3-------0----------------------------------------------------|
G|-------0------0-------0----------------------------------------------------|
D|-------2------4-------2----------------------------------------------------|
A|-------3------5-------2-------------2--------------------------------------|
E|----------------------0----0--2--3-----------------------------------------|
   No    I'm   not     done 



     Am                                Dsus2

e|---0--------------------------------0--------------------------------------|
B|---1--------------------------------3--------------------------------------|
G|---2--------------------------------2--------------------------------------|
D|---2--------------------------------0--------------------------------------|
A|---0-----------------------------------------------------------------------|
E|---------------------------------------------------------------------------|
   You don't need to smile when you hurt inside 



                   Em7                       Cmaj7   Dsus2   C

e|-----------------3--------------------------0------0-------0---------------|
B|-----------------3--------------------------0------3-------1---------------|
G|-----------------0--------------------------0------0-------0---------------|
D|-----------------2--------------------------2------4-------2---------------|
A|-----------------2--------------------------3------5-------3---------------|
E|-----------------0---------------------------------------------------------|
   I can see the doubt in your eyes, And the fun we had is done 


       ???                         Am   G

e|-----0---------------------------0----0------------------------------------|
B|-----0---------------------------1----0------------------------------------|
G|-----0---------------------------2----4------------------------------------|
D|-----4---------------------------2----5------------------------------------|
A|-----2---------------------------0----5------------------------------------|
E|--------------------------------------3------------------------------------|
   But I won't sit and watch you go  cold 


           C                      C/B              Am     G

e|---------0-------------------0--0----------------0------3------------------|
B|---------1-------------------1--1----------------1------3------------------|
G|---------0-------------------0--0----------------2------0------------------|
D|---------2-------------------2-------------------2------0------------------|
A|---------3-------------------3--2----------------0------2------------------|
E|--------------------------------------------------------3------------------|
   When summer has left the room,   This curtain is closing 


               C                   C/B G

e|-------------0----------------0--0---3-------------------------------------|
B|-------------1----------------1--1---3-------------------------------------|
G|-------------0----------------0--0---0-------------------------------------|
D|-------------2----------------2------0-------------------------------------|
A|-------------3----------------3--2---2-------------------------------------|
E|-------------------------------------3-------------------------------------|
   I'm not staying to see the end



VERSE:
   G                          D              D/F#                 G

e|--3----------3---------------2--2-----------2--------2----------3-------3-----------------|
B|--3----------3---------------3--3-----------3--------3----------3-------3-----------------|
G|--0----------0---------------2--2-----------2--------2----------0-------0-----------------|
D|--0----------0---------------0--0-----------0--------0----------0-------0-----------------|
A|--2----------2--------------------------------------------------2-------2-----------------|
E|--3----------3------------------------------2--------2----------3-------3-----------------|
   We said we'd never become this, And tell each other how to live



    Am                        Bm7          Em         Dsus2 
                                                 ^v^       ^ 
e|--0---------------0---------2----2-------0--0--000--0-0-00----------------------|
B|--2---------------2---------3----3-------0--0--000--3-3-33----------------------|
G|--2---------------2---------2----2-------0--0--000--0-0-00----------------------|
D|--1---------------1---------4----4-------2--2--222--4-4-44----------------------|
A|--0---------------0---------2----2-------2--2--222--5-5-55----------------------|
E|-----------------------------------------0--0--000------------------------------|
   Now I know your high times aren't with me


   G                     D          D/F#         G

e|--3----------3---------2--2-------2---2--------3-------3-----------------|
B|--3----------3---------3--3-------3---3--------3-------3-----------------|
G|--0----------0---------2--2-------2---2--------0-------0-----------------|
D|--0----------0---------0--0-------0---0--------0-------0-----------------|
A|--2----------2---------------------------------2-------2-----------------|
E|--3----------3--------------------2---2--------3-------3-----------------|
   We keep finding more ways to escape you and me 


  Am                           Bm7             Em         Dsus2 Em7
                                                     ^v^     ^ 
e|--0---------------0----------2--2------------0--0--000--0-00--3-------------------|
B|--2---------------2----------3--3------------0--0--000--3-33--3-------------------|
G|--2---------------2----------2--2------------0--0--000--0-00--0-------------------|
D|--1---------------1----------4--4------------2--2--222--4-44--2-------------------|
A|--0---------------0----------2--2------------2--2--222--5-55--2-------------------|
E|---------------------------------------------0--0--000--------0-------------------|
   Pretend you're asleep when you're lying awake


CHORUS:
    C                                  Dsus2

e|--0----------------------------------0-------------------------------------|
B|--1----------------------------------2-------------------------------------|
G|--0----------------------------------3-------------------------------------|
D|--2----------------------------------0-------------------------------------|
A|--3------------------------------------------------------------------------|
E|--0------------------------------------------------------------------------|
   I'm not gonna lie saying it's alright  


                    Em7                              Cmaj7     Dsus2

e|-------------------3--------------------------------0---------0------------|
B|-------------------3--------------------------------0---------3------------|
G|-------------------0--------------------------------0---------0------------|
D|-------------------2--------------------------------2---------4------------|
A|-------------------2--------------------------------3---------5------------|
E|-------------------0-------------------------------------------------------|
   Staring at the walls round our lives,     We were ten feet high  


         C      Dsus2   Em

e|-------0------0-------0----------------------------------------------------|
B|-------1------3-------0----------------------------------------------------|
G|-------0------0-------0----------------------------------------------------|
D|-------2------4-------2----------------------------------------------------|
A|-------3------5-------2-------------2--------------------------------------|
E|----------------------0----0--2--3-----------------------------------------|
     No I'm   not     done 


   Am                                Dsus2

e|---0--------------------------------0--------------------------------------|
B|---1--------------------------------3--------------------------------------|
G|---2--------------------------------2--------------------------------------|
D|---2--------------------------------0--------------------------------------|
A|---0-----------------------------------------------------------------------|
E|---------------------------------------------------------------------------|
   You don't need to smile when you hurt inside 


                  Em7                       Cmaj7   Dsus2   C

e|-----------------3--------------------------0------0-------0---------------|
B|-----------------3--------------------------0------3-------1---------------|
G|-----------------0--------------------------0------0-------0---------------|
D|-----------------2--------------------------2------4-------2---------------|
A|-----------------2--------------------------3------5-------3---------------|
E|-----------------0---------------------------------------------------------|
   I can see the doubt in your eyes, And the sun we had is down 


                            Am          Am?         G           Am  

e|-----------------------------------------------------------------------------------|
B|--------------------------1--1--1--1--1--1--1--1--0--0--0--0--1--1--1--1-----------|
G|--------------------------2--2--2--2--2--2--2--2--4--4--4--4--2--2--2--2-----------|  
D|--------------------------2--2--2--2--0--0--0--0--5--5--5--5--2--2--2--2-----------|
A|--------------------------0-----------------------------------0--------------------|
E|--------------------------------------2-----------3--------------------------------|
   I don't wanna say it's o o o o o over , When I still love you



                            Am          Am?         G           Am  

e|-----------------------------------------------------------------------------------|
B|--------------------------1--1--1--1--1--1--1--1--0--0--0--0--1--1--1--1-----------|
G|--------------------------2--2--2--2--2--2--2--2--4--4--4--4--2--2--2--2-----------|  
D|--------------------------2--2--2--2--0--0--0--0--5--5--5--5--2--2--2--2-----------|
A|--------------------------0-----------------------------------0--------------------|
E|--------------------------------------2-----------3--------------------------------|
           Don't say it's over,        When I still love you



                 Am     G          C                     C/B  Am

e|---------------0------3----------0------------------0--0----0--------------|
B|---------------1------3----------1------------------1--1----2--------------|
G|---------------2------0----------0------------------0--0----2--------------|
D|---------------2------0----------2------------------2-------1--------------|
A|---------------0------2----------3------------------3--2----0--------------|
E|----------------------3----------------------------------------------------|
   I won't let it go cold, When summer has left the room  


                      Am     G             C                   C/B Am

e|--------------------0------3-------------0----------------0--0---0---------|
B|--------------------1------3-------------1----------------1--1---1---------|
G|--------------------2------0-------------0----------------0--0---2---------|
D|--------------------2------0-------------2----------------2------2---------|
A|--------------------0------2-------------3----------------3--2---0---------|
E|---------------------------3-----------------------------------------------|
   This curtain is closing,     I'm not staying to see the end  



                 Am     G          C                     C/B  Am

e|---------------0------3----------0------------------0--0----0--------------|
B|---------------1------3----------1------------------1--1----2--------------|
G|---------------2------0----------0------------------0--0----2--------------|
D|---------------2------0----------2------------------2-------1--------------|
A|---------------0------2----------3------------------3--2----0--------------|
E|----------------------3----------------------------------------------------|
   I won't watch it grow old, When summer has left the room 



                      Am     G             C                   C/B Am

e|--------------------0------3-------------0----------------0--0---0---------|
B|--------------------1------3-------------1----------------1--1---1---------|
G|--------------------2------0-------------0----------------0--0---2---------|
D|--------------------2------0-------------2----------------2------2---------|
A|--------------------0------2-------------3----------------3--2---0---------|
E|---------------------------3-----------------------------------------------|
   This curtain is closing,     I'm not staying to be the end 
   


                           Am          Am?         G           Am  

e|-----------------------------------------------------------------------------------|
B|--------------------------1--1--1--1--1--1--1--1--0--0--0--0--1--1--1--1-----------|
G|--------------------------2--2--2--2--2--2--2--2--4--4--4--4--2--2--2--2-----------|  
D|--------------------------2--2--2--2--0--0--0--0--5--5--5--5--2--2--2--2-----------|
A|--------------------------0-----------------------------------0--------------------|
E|--------------------------------------2-----------3--------------------------------|
                Say it's over,        And  I still love you



                           Am          Am?         G           Am  

e|-----------------------------------------------------------------------------------|
B|--------------------------1--1--1--1--1--1--1--1--0--0--0--0--1--1--1--1-----------|
G|--------------------------2--2--2--2--2--2--2--2--4--4--4--4--2--2--2--2-----------|  
D|--------------------------2--2--2--2--0--0--0--0--5--5--5--5--2--2--2--2-----------|
A|--------------------------0-----------------------------------0--------------------|
E|--------------------------------------2-----------3--------------------------------|
                Say it's over,        And  I still love you




Again, It's not a 100% correct, but it's an effort :). Email, if you have questions.

Related for Ten Feet High tab