Song name
# A B C D E F G H I J K L M N O P Q R S T U V W X Y Z

Andrea Corr - Shame On You Acoustic tab

Highlighted       Show chord diagrams
Andrea Corr
"Shame on you"
Acoustic

Intro

  (Em)     (Asus)  (A)   (D5)

--------------------------0---0-0--|
-----0-------3-----2-----2----3-3--|
----0-------2-----2-----3-----2-2--|
---2-------2-----2-----2------0-0--|
--2-------0-----0------------------|
-----------------------------------|

Asus                        A
You left me thinking what a bore
Em                 D5
I'm always stuck inside
Asus                       D5
I've got a feeling there is more
     Em                 A
And I've been left behind
Asus                   A
A lot of pain a lot of noise
    Em                A
That these four walls hide
Asus              A
Happy faces go to war.
Em                 D5
And dance upon the mines

Chorus:
(these are the chords to use)

Em/B     Asus      A           D5
-1--------0--------0------------0---------------|
-0--------3--------2------------3---------------|
-0--------2--------2------------2---------------|
-2--------2--------2------------0---------------|
-2--------0--------0----------------------------|
-0--------0--------0----------------------------|

Em/B           Asus      A         D5
Come on, come join, come join, come join us
Em/B           Asus      A   D5
Your barely young come join us
Em/B           Asus      A         D5
Youd be a man come join come join us
Em/B           Asus      A         D5
You're big and strong come join us

Asus                        A
You planted me in foreign ground
Em                 D5
A pen within a hand
Asus                       D5
At least I am not on my own
     Em                 A
In hell I have a friend
Asus                   A
And though I fight a sinners shame
   Em                A
It isn't my crusade
Asus              A
Dirty faces in a war
Em                 D5
Asleep in open graves

>>>the note goes a little higher on the second chorus, so
use these chords now:

Em/B     Asus      A           D

-7---------5--------0----------2-------------|
-8---------5--------2----------3-------------|
-9---------7--------2----------2-------------|
-9---------7--------2----------0-------------|
-7---------7--------0------------------------|
-7---------5--------0------------------------|


Em/B           Asus      A         D
Come on, come join, come join, come join us
Em/B           Asus      A   D
Your barely young come join us
Em/B           Asus      A         D
Youd be a man come join come join us
Em/B           Asus      A         D
You're big and strong come join us
Come on, come join, come join, come join us
Your barely young come join us
Youd be a man come join come join us
You're big and strong come join us

(>> Now use the lower chords again:>>)
Em/B     Asus      A           D5
-1--------0--------0------------0---------------|
-0--------3--------2------------3---------------|
-0--------2--------2------------2---------------|
-2--------2--------2------------0---------------|
-2--------0--------0----------------------------|
-0--------0--------0----------------------------|

Em/B       Asus
Shame on you
A           D5
shame on you
Em/B      Asus
shame on you
A                    D5
To keep my love from me


Em/B       Asus
Shame on you
A           D5
shame on you
Em/B      Asus
shame on you
A                    D5
To keep my love from me

Em                D
Close your eyes to see it
A                    D5
Block your heart to feel it
Em                     D
Changed his name to a number
A                    D5
But he's somebody's child
Tap to rate this tab
# A B C D E F G H I J K L M N O P Q R S T U V W X Y Z