Song name
# A B C D E F G H I J K L M N O P Q R S T U V W X Y Z

Andreas Bourani - Nur In Meinem Kopf tab

This is my first Tab so pls don't be that hard :)

Capo 2nd for guitar (Turn Up 2 Half Steps für other instruments ;D)


Intro: C | G | Em | Am | x2

 C                G                Em               Am
|----------------|----------------|----------------|----------------|
|--------1-------|--------0-------|----------------|--------0-------|
|-----0----------|-----0----------|-----0--2-------|-----0----------|
|----------------|----------------|----------------|----------------|
|3---------------|----------------|----------------|0---------------|
|----------------|3---------------|0---------------|----------------|

 C                G                Em               Am
|----------------|----------------|----------------|----------------|
|--------1-------|--------0-------|----------------|----------------|
|-----0----------|-----0----------|-----0--2-------|-----0----------|
|----------------|----------------|----------------|--------4-------|
|3---------------|----------------|----------------|0---------------|
|----------------|3---------------|0---------------|----------------|


Verse 1: Em | Bmadd11 | C | G | x4

 Em               Bmadd11          C                G
|----------------|----------------|----------------|----------------|
|----3-----3-----|----3-----3-----|----3-----3-----|----3-----3-----|
|--0-----0-----0-|--0-----0-----0-|--0-----0-----0-|--0-----0-----0-|
|2-----2---------|----------------|----------------|----------------|
|----------------|2-----2---------|3-----3---------|----------------|
|----------------|----------------|----------------|3-----3---------|

 Em               Bmadd11          C                G
|----------------|----------------|----------------|----------------|
|----3-----3-----|----3-----3-----|----3-----3-----|----3-----3-----|
|--0-----0-----0-|--0-----0-----0-|--0-----0-----0-|--0-----0-----0-|
|2-----2---------|----------------|----------------|----------------|
|----------------|2-----2---------|3-----3---------|----------------|
|----------------|----------------|----------------|3-----3---------|

 Em               Bmadd11          C                G
|----------------|----------------|----------------|----------------|
|----3-----3-----|----3-----3-----|----3-----3-----|----3-----3-----|
|--0-----0-----0-|--0-----0-----0-|--0-----0-----0-|--0-----0-----0-|
|2-----2---------|----------------|----------------|----------------|
|----------------|2-----2---------|3-----3---------|----------------|
|----------------|----------------|----------------|3-----3---------|

 Em               Bmadd11          C                G
|----------------|----------------|----------------|----------------|
|----3-----3-----|----3-----3-----|----3-----3-----|----3-----3-----|
|--0-----0-----0-|--0-----0-----0-|--0-----0-----0-|--0-----0-----0-|
|2-----2---------|----------------|----------------|----------------|
|----------------|2-----2---------|3-----3---------|----------------|
|----------------|----------------|----------------|3-----3---------|


Chorus (Only Chords): C | G | Em | Am | x4


Vers 2 (Same as Verse 1): Em | Bmadd11 | C | G | x4



Chorus (Only Chords): C | G | Em | Am | x4


Bridge (Only Chords): Bmadd11 | C | Em | D | x3


Break (Like Intro): C | G | Em | Am | x2


Chorus + Outro (Only Chords): C | G | Em | Am | x8
Tap to rate this tab
# A B C D E F G H I J K L M N O P Q R S T U V W X Y Z