Song name
# A B C D E F G H I J K L M N O P Q R S T U V W X Y Z

Andreas Bourani - Alles Nur In Meinem Kopf tab

Alles nur in meinem Kopf

Capo: 2


Intro:

|----------|----------|----------|----------|
|-----1----|-----0----|----------|-----0----|
|---0------|---0------|---0--2---|---0------|
|----------|----------|----------|----------|
|-2--------|----------|----------|-0--------|
|----------|-3--------|-0--------|----------|


|----------|----------|----------|----------|
|-----1----|-----0----|----------|----------|
|---0------|---0------|---0--2---|---0------|
|----------|----------|----------|-----4----|
|-2--------|----------|----------|-0--------|
|----------|-3--------|-0--------|----------|



Strophe:

|----------|----------|----------|----------|
|--3---3---|--3---3---|--3---3---|--3---3---|
|-0---0----|-0---0----|-0---0----|-0---0----|
|-------0--|-------0--|-------0--|-------0--|
|----------|2---2-----|3---3-----|----------|
|0---0-----|----------|----------|3---3-----|




Refrain: 

     C          G          Em         Am
|----------|----3-----|----------|----------|
|-1--------|----------|----------|-1--------|
|----------|----------|----------|---2------|
|---2------|----------|---2------|---2------|
|------3---|-2--------|---2------|----------|
|----------|----3-----|----------|----------|


     C         G          Em         Am
|----------|----3-----|----------|----------|
|-1--------|----------|----------|-1--------|
|----------|----------|----------|---2------|
|---2------|----------|---2------|---2------|
|------3---|-2--------|---2------|----------|
|----------|----3-----|----------|----------|



     C         G          Em          D
|----------|----3-----|----------|--2-------|
|-1--------|----------|----------|----3-----|
|----------|----------|----------|--2-------|
|---2------|----------|---2------|----------|
|------3---|-2--------|---2------|----------|
|----------|----3-----|----------|----------|




Bridge:
                 C          Em         D
|----------|----------|----------|--2-------|
|----------|-1--------|----------|----3-----|
|-----4----|----------|----------|--2-------|
|----------|---2------|---2------|----------|
|--2-------|----------|---2------|----------|
|----------|----3-----|----------|----------|

Hoffe, euch gefällt die Übersetzung :-)

Michels
Tap to rate this tab
 
# A B C D E F G H I J K L M N O P Q R S T U V W X Y Z