Song name
# A B C D E F G H I J K L M N O P Q R S T U V W X Y Z

Andreas Bourani - Nur In Meinem Kopf tab

Andreas Bourani - Nur in meinem Kopf


Tab by/von Thebustyann
23.06.2012

Capo on second fret/Kapodaster am zweiten Bund!



Intro:

|--------------|--------------|--------------|--------------|
|--------1-----|--------0-----|--------------|--------0-----|
|-----0--------|-----0--------|-----0--2-----|-----0--------|
|--------------|--------------|--------------|--------------|
|3-------------|--------------|--------------|0-------------|
|--------------|3-------------|0-------------|--------------|


|--------------|--------------|--------------|--------------|
|--------1-----|--------0-----|--------------|--------------|
|-----0--------|-----0--------|-----0--2-----|-----0--------|
|--------------|--------------|--------------|--------4-----|
|3-------------|--------------|--------------|0-------------|
|--------------|3-------------|0-------------|--------------|


Verse: (0)-> can be ignored/kann weggelassen werden

|--------------|--------------|--------------|--------------|
|-----3------3-|-----3------3-|-----3------3-|-----3------3-|
|----0----(0)--|----0----(0)--|----0----(0)--|----0----(0)--|
|--------------|--------------|--------------|--------------|
|--------------|2-2-------2---|3-3-------3---|--------------|
|0-0-------0---|--------------|--------------|3-3-------3---|

Ich kann in 3 Sekunden die Welt erobern
Den Himmel stürmen und in mir wohnen.
In 2 Sekunden Frieden stiften, Liebe machen, den Feind vergiften.
In 'ner Sekunde Schlösser bauen
2 Tage einzieh'n und alles kaputt hau'n.
Alles Geld der Welt verbrennen
und heut' die Zukunft kennen.


Chorus:    ^ strum upwards       v strum downwards

|-3-3-3-3-3----|-3-3-3-3-3----|-3-3-3-3-3----|-3-3-3-3-3----|
|-1-1-1-1-1----|-0-0-0-0-0----|-0-0-0-0-0----|-3-3-3-3-3----|
|-2-2-2-2-2----|-0-0-0-0-0----|-0-0-0-0-0----|-2-2-2-2-2----|
|-0-0-0-0-0----|-0-0-0-0-0----|-2-2-2-2-2----|-0-0-0-0-0----|
|-3-3-3-3-3----|-2-2-2-2-2----|-2-2-2-2-2----|-0-0-0-0-0----|
|-X-X-X-X-X----|-3-3-3-3-3----|-0-0-0-0-0----|-X-X-X-X-X----|
  v v ^ ^ v      v v ^ ^ v      v v ^ ^ v      v v ^ ^ v     

Und das ist alles nur in meinem Kopf.
Und das ist alles nur in meinem Kopf.
Ich wär' gern länger dort geblieben,
doch die Gedanken kommen und fliegen.
Alles nur in meinem Kopf
Und das ist alles nur in meinem Kopf.


Verse:

Wir sind für 2 Sekungen Ewigkeit 
unsichtbar Ich stopp die Zeit
Kann in Sekunden Fliegen lernen
Und weiß wie's sein kann, nie zu sterben.
Die Welt durch deine Augen seh'n.
Augen zu und durch Waende geh'n.


Chorus:

Und das ist alles nur in meinem Kopf.
Und das ist alles nur in meinem Kopf.
Ich wär' gern länger dort geblieben,
doch die Gedanken kommen und fliegen.
Alles nur in meinem Kopf
Und das ist alles nur in meinem Kopf.


Bridge:

|-3-3-3-3-3----|-3-3-3-3-3----|-3-3-3-3-3----|-3-3-3-3-3----|
|-0-0-0-0-0----|-1-1-1-1-1----|-0-0-0-0-0----|-3-3-3-3-3----|
|-0-0-0-0-0----|-0-0-0-0-0----|-0-0-0-0-0----|-2-2-2-2-2----|
|-2-2-2-2-2----|-2-2-2-2-2----|-0-0-0-0-0----|-0-0-0-0-0----|
|-2-2-2-2-2----|-3-3-3-3-3----|-2-2-2-2-2----|-0-0-0-0-0----|
|-0-0-0-0-0----|-X-X-X-X-X----|-3-3-3-3-3----|-X-X-X-X-X----|
  v v ^ ^ v      v v ^ ^ v      v v ^ ^ v      v v ^ ^ v     

Du bist wie ich, ich bin wie du
Wir alle sind aus Fantasie
Wir sind aus Staub und Fantasie
Wir sind aus Staub und Fantasie


Play intro again here/Intro hier nochmal spielen!


Chorus:

Und das ist alles nur in meinem Kopf.
Und das ist alles nur in meinem Kopf.
Ich wär' gern länger dort geblieben,
doch die Gedanken kommen und fliegen.
Alles nur in meinem Kopf
Und das ist alles nur in meinem Kopf.

Alles nur in meinem Kopf
In meinem Kopf
Ich wär' gern länger dort geblieben,
doch die Gedanken kommen und fliegen.

Ooooooohooohoooh...
Tap to rate this tab
 
# A B C D E F G H I J K L M N O P Q R S T U V W X Y Z