Song name
# A B C D E F G H I J K L M N O P Q R S T U V W X Y Z

Andreas Et Nicolas - Je Deteste Le Sexe tab

Artiste: Andréas et Nicolas
Titre: Je déteste le sexe


*Trouvé à l'oreille, j'ai tenté de respecter le plus possible la chanson.*


Accords :

Bm: 224432
G : 355433
D : 000232 ou 557775
Em: 022000
F#: 244322
A : 577655




Arpèges :

[Bm]*2               [G]                 [D]               
|-----------2--------|----------3--------|---------2p0--------|
|-------------3---3--|------------3---3--|-----3-------3------|
|-----4---------4----|--------------4----|---2---2-------2----|
|---4---4------------|-----5-------------|-0------------------|
|-2------------------|---5---5-----------|--------------------|
|--------------------|-3-----------------|--------------------|



[Em]*2               [F#]*2 
|-----------0--------|----------2--------|
|-------------0---0--|------------2---2--|
|---------------0----|--------------3----|
|-----2--------------|-----4-------------|
|---2---2------------|---4---4-----------|
|-0------------------|-2-----------------|






Couplet 1 : 

Bm
Je déteste le sexe
G           D
depuis mon enfance
Em                                   F#
Je n'éprouve aucun désire ni pour les hommes, ni pour les femmes

Bm
Mes copains à l'école
G                      D
rêvait de chattes et de nichons
Em                       F#   
Et moi je restais là tel un vieux cornichons



Pont 1 :

G                                          D
Et pourtant quelque chose brule au fond de moi
Em                                       F#
Dans mon cœur, dans ma chair, dans mes entrailles    


Refrain 1 :

            Bm     G            A      D
J'ai envie d'un bébé sans avoir a baisé
G (tenir)               F# (montéE)
Un humain de sexe opposé

(stop)

Bm     G            A      D
J'ai envie de goûter a la paternité
G (montéE)                           F# 
Sans avoir a toucher les néné d'une nana nue




Bonne gratte à tous !    Alafolix/Ashfarmer.


Artists official Website: http://www.andreasetnicolas.com/
Tap to rate this tab
# A B C D E F G H I J K L M N O P Q R S T U V W X Y Z