Song name
# A B C D E F G H I J K L M N O P Q R S T U V W X Y Z

Andreas Skapetis - Way Out tab

-------------------------------------------------------------------------------
			     Way Out - By Andreas Skapetis
-------------------------------------------------------------------------------
Tabbed by: Andreas Skapetis

Tuning: Standard

Website: www.skapetis.com

GUITAR1 & GUITAR2:
e|---------------------------------------------------------------------------|
B|---------------------------------------------------------------------------|
G|---------------------------------------------------------------------------|
D|2--------------------------------------------------------------------------|
A|0--0-0-3-0-------------0---------------------------------------------------|
E|-----------3-0-2-0-2-3---3-2-0---------------------------------------------|(x4)



GUITAR1:
e|---------------------------------------------------------------------------|
B|---------------------------------------------------------------------------|
G|2--2--2-2----------2--2--2-2-----------------------------------------------|
D|2--2--2-2----------2--2--2-2-----------------------------------------------|
A|0--0--0-0--0-3-0-3-0--0--0-0-----------------------------------------------|
E|---------------------------------------------------------------------------|
GUITAR2:
e|---------------------------------------------------------------------------|
B|---------------------------------------------------------------------------|
G|-------------------------------2--2--2-2----------2--2--2-2----------------|
D|-------------------------------2--2--2-2----------2--2--2-2----------------|
A|-------------------------------0--0--0-0--0-3-0-3-0--0--0-0----------------|
E|---------------------------------------------------------------------------|



GUITAR1:
e|---------------------------------------------------------------------------|
B|---------------------------------------------------------------------------|
G|2--2--2-2-------------------2--2--2-2--------------------------------------|
D|2--2--2-2-------------------2--2--2-2--------------------------------------|
A|0--0--0-0-------------------0--0--0-0---------------------------------3-2-0|
E|-----------0-3-0-3--------------------0-3-0--2-0-2-0-3-0-3-0-2-0-3-0-------|
GUITAR2:
e|---------------------------------------------------------------------------|
B|---------------------------------------------------------------------------|
G|---------2--2--2-2---------------------------------------------------------|
D|---------2--2--2-2---------------------------------------------------------|
A|---------0--0--0-0----------------------------------------------------3-2-0|
E|--------------------0-3-0-3-------------------2-0-2-0-3-0-3-0-2-0-3-0------|



GUITAR1:
e|---------------------------------------------------------------------------|
B|---------------------------------------------------------------------------|
G|---------2--2--2-2---------------------------------------------------------|
D|---------2--2--2-2---------------------------------------------------------|
A|---------0--0--0-0----------------------------------------------------3-2-0|
E|--------------------0-3-0-3-------------------2-0-2-0-3-0-3-0-2-0-3-0------|
GUITAR2:
e|---------------------------------------------------------------------------|
B|---------------------------------------------------------------------------|
G|2--2--2-2-------------------2--2--2-2--------------------------------------|
D|2--2--2-2-------------------2--2--2-2--------------------------------------|
A|0--0--0-0-------------------0--0--0-0---------------------------------3-2-0|
E|-----------0-3-0-3--------------------0-3-0--2-0-2-0-3-0-3-0-2-0-3-0-------|



GUITAR1 & GUITAR2:
e|---------------------------------------------------------------------------|
B|---------------------------------------------------------------------------|
G|2--2--2-2-------------2--2--2-2------------2--2--2-2-----------------------|
D|2--2--2-2-------------2--2--2-2------------2--2--2-2-----------------------|
A|0--0--0-0--------3--- 0--0--0-0--------3---0--0--0-2-------3---------------|
E|-----------0-3-0-----------------0-3-0---------------0-3-0-----------------|

e|---------------------------------------------------------------------------|
B|---------------------------------------------------------------------------|
G|---------------------------------------------------------------------------|
D|---------------------------------------------------------------------------|
A|3-2-0-----------0-------3-2-0----------------------------------------------|
E|------3-2-0-2-3---3-2-0----------------------------------------------------|

e|---------------------------------------------------------------------------|
B|---------------------------------------------------------------------------|
G|2--2--2-2--------------------2--2------------------2-2---------------------|
D|2--2--2-2--------------------2--2------------------2-2---------------------|
A|0--0--0-0--0-3-0-7-3-0-3-0---0--0------------------0-0--0-3-0-7-3-0--------|
E|----------------------------------0-3-0-3-0-3-4-5--------------------------|

e|---------------------------------------------------------------------------|
B|---------------------------------------------------------------------------|
G|---------------------------------------------------------------------------|
D|---------------------------------------------------------------------------|
A|3-2-0-----------0-------3-2-0----------------------------------------------|
E|------3-2-0-2-3---3-2-0----------------------------------------------------|



GUITAR1:
e|---------------------------------------------------------------------------|
B|---------------------------------------------------------------------------|
G|---------------------------------------------------------------------------|
D|---------------------------------------------------------------------------|
A|3--2-0-----------------0---3-2-3--2-0-----------------0---3-2--------------|
E|-------3-2-0-2-3-0-2-3---2------------3-2-0-2-3-0-2-3---2------------------|
GUITAR2:
e|---------------------------------------------------------------------------|
B|---------------------------------------------------------------------------|
G|---------------------------------------------------------------------------|
D|---------------------------------------------------------------------------|
A|7--5-3-----------------3---7-5-7--5-3------------------3---7-5-------------|
E|-------7-5-3-5-7-3-5-7---5-------------7-5-3-5-7-3-5-7---5-----------------|



GUITAR1:
e|---------------------------------------------------------------------------|
B|---------------------------------------------------------------------------|
G|---------------------------------------------------------------------------|
D|---------------------------------------------------------------------------|
A|5--3-2-----------------2---5-3-5--3-2-----------------2---5-3--------------|
E|------5-3-2-3-5-2-3-5---3-------------5-3-2-3-5-2-3-5---3------------------|
GUITAR2:
e|---------------------------------------------------------------------------|
B|---------------------------------------------------------------------------|
G|---------------------------------------------------------------------------|
D|---------------------------------------------------------------------------|
A|9--7-5-----------------5---9-7-9--7-5-----------------5---9-7--------------|
E|-------8-7-5-7-8-5-7-8---7-------------8-7-5-7-8-5-7-8--7------------------|



GUITAR1:
e|---------------------------------------------------------------------------|
B|---------------------------------------------------------------------------|
G|---------------------------------------------------------------------------|
D|---------------------------------------------------------------------------|
A|7--5-3-----------------3---7-5-7--5-3------------------3---7-5-------------|
E|-------7-5-3-5-7-3-5-7---5-------------7-5-3-5-7-3-5-7---5-----------------|
GUITAR2:
e|---------------------------------------------------------------------------|
B|---------------------------------------------------------------------------|
G|---------------------------------------------------------------------------|
D|---------------------------------------------------------------------------|
A|10--9-7-------------------7---10-9-10--9-7--------------------7------------|
E|-------10-8-7-8-10-7-8-10---8--------------10-8-7-8-10-7-8-10---8----------|



GUITAR1:
e|---------------------------------------------------------------------------|
B|---------------------------------------------------------------------------|
G|---------------------------------------------------------------------------|
D|---------------------------------------------------------------------------|
A|9--7-5---------10-9-7----------12-10-9----14-12-10-----15-14-12----17-17~--|
E|-------8-7-5-7--------10-8-7-8---------10-----------12----------14---------|
GUITAR2:
e|---------------------------------------------------------------------------|
B|---------------------------------------------------------------------------|
G|---------------------------------------------------------------------------|
D|---------------------------------------------------------------------------|
A|12-10-9----------14-12-10-----------15-14-12---17-15-14---19-17-15---21-21~|
E|-------12-10-8-10--------14-12-10-12---------14---------15---------17------|



GUITAR1&GUITAR2(solo backup):
e|---------------------------------------------------------------------------|
B|---------------------------------------------------------------------------|
G|---------------------------------------------------------------------------|
D|2--------------------------------------------------------------------------|
A|0--0-0-3-0-------------0---------------------------------------------------|
E|-----------3-0-2-0-2-3---3-2-0---------------------------------------------|(x8)



GUITAR3(Solo, Part I):
e|---------------------------------------------------------------------------|
B|---------------------------------------------------------------------------|
G|--7b-7p5---5----------------------------5--5-7-7p5---5-------------5-------|
D|--------h7--7-5--5-7~-----------5---5-7--7---------7---7-5---5-6-7---7-7~/\|
A|----------------7-----------5-7---7------------------------7---------------|
E|---------------------15\5-8------------------------------------------------|

e|------8---10-8-12-8-10-8-10-10b-10-------8----10-8-12-8-10-8---------------|
B|---10--10-----------------------------10---10----------------10-10b-10-----|
G|-9----------------------------------9--------------------------------------|
D|---------------------------------------------------------------------------|
A|---------------------------------------------------------------------------|
E|---------------------------------------------------------------------------|

e|------8---10-8-12-8-10-8-10-10b---8h12p8-----------------------------------|
B|---10--10--------------------------------10--------------------------------|
G|-9------------------------------------------9------------------------------|
D|----------------------------------------------10---------------------------|
A|-------------------------------------------------12-10-0-7-0-5~-0----------|
E|---------------------------------------------------------------------------|


GUITAR1:
e|---------------------------------------------------------------------------|
B|---------------------------------------------------------------------------|
G|------------------------------------------7h8p7h8--------------------------|
D|-2------5---7-7---7h8p7--2------5---7-7------------2------5---7-7---7h8p7--|
A|-0--0-0-3-0-5-5-0-5h6p5--0--0-0-3-0-5-5-0----------0--0-0-3-0-5-5-0-5h6p5--|
E|---------------------------------------------------------------------------|
GUITAR2:
e|---------------------------------------------------------------------------|
B|---------------------------------------------------------------------------|
G|---------------------------------------------------------------------------|
D|-2------5---7-7---7h8p7--2------5---7-7------------2------5---7-7---7h8p7--|
A|-0--0-0-3-0-5-5-0-5h6p5--0--0-0-3-0-5-5-0-5h6p5h6--0--0-0-3-0-5-5-0-5h6p5--|
E|---------------------------------------------------------------------------|



GUITAR1:
e|---------------------------------------------------------------------------|
B|---------------------------------------------------------------------------|
G|---------------------------------------------------------------------------|
D|---------------------------------------------------------------------------|
A|-5p4-5p4-5p4-5p4--5-7-7----------------------------------------------------|
E|-3p2-3p2-3p2-3p2--3-4-5----------------------------------------------------|
GUITAR2:
e|---------------------------------------------------------------------------|
B|---------------------------------------------------------------------------|
G|---------------------------------------------------------------------------|
D|---------------------------------------------------------------------------|
A|---------------------------------------------------------------------------|
E|-3-2-3-2-3-2-3-2--3-4-5----------------------------------------------------|



GUITAR1&GUITAR2(solo backup):
e|---------------------------------------------------------------------------|
B|---------------------------------------------------------------------------|
G|---------------------------------------------------------------------------|
D|2--------------------------------------------------------------------------|
A|0--0-0-3-0-------------0---------------------------------------------------|
E|-----------3-0-2-0-2-3---3-2-0---------------------------------------------|(x8)



GUITAR3(Solo, Part II):
e|---------------------------------------------------------------------------|
B|---------------------------------------------------------------------------|
G|-------------------------------------------------------------14-16-17-16-17|
D|---------------12-14----------------12-14-17-16-17~-14-16-17---------------|
A|12~------12-15------15-12~-12-14-15----------------------------------------|
E|---12-15-------------------------------------------------------------------|

e|---------15-17-19-17-19-17-15-17-17b-17-|-12p8------8-12p8-----8-12-8-12/17|
B|15-17-19--------------------------------|-----10-10-------10-10------------|
G|----------------------------------------|-------9-----------9--------------|
D|----------------------------------------|----------------------------------|
A|----------------------------------------|----------------------------------|
E|----------------------------------------|----------------------------------|

e|12---------|-12p8------8-12p8-----8-12-10-8-12-10-8-10-8-|-12p8------8-----|
B|--13-13/17-|-----10-10-------10-10-----------------------|-----10-10-------|
G|-----------|-------9-----------9-------------------------|-------9---------|
D|-----------|---------------------------------------------|-----------------|
A|-----------|---------------------------------------------|-----------------|
E|-----------|---------------------------------------------|-----------------|

e|-17p12------12-15-13-12----------------------------------------------------|
B|------13--13-----------15-13-12-13~--15p13p12-----------------12-----------|
G|--------14-----------------------------------14p12--12---12-14--14-12--14/\|
D|--------------------------------------------------14---14------------14----|
A|---------------------------------------------------------------------------|
E|---------------------------------------------------------------------------|



GUITAR1:
e|---------------------------------------------------------------------------|
B|---------------------------------------------------------------------------|
G|------------------------------------------7h8p7h8--------------------------|
D|-2------5---7-7---7h8p7--2------5---7-7------------2------5---7-7---7h8p7--|
A|-0--0-0-3-0-5-5-0-5h6p5--0--0-0-3-0-5-5-0----------0--0-0-3-0-5-5-0-5h6p5--|
E|---------------------------------------------------------------------------|
GUITAR2:
e|---------------------------------------------------------------------------|
B|---------------------------------------------------------------------------|
G|---------------------------------------------------------------------------|
D|-2------5---7-7---7h8p7--2------5---7-7------------2------5---7-7---7h8p7--|
A|-0--0-0-3-0-5-5-0-5h6p5--0--0-0-3-0-5-5-0-5h6p5h6--0--0-0-3-0-5-5-0-5h6p5--|
E|---------------------------------------------------------------------------|



GUITAR1:
e|---------------------------------------------------------------------------|
B|---------------------------------------------------------------------------|
G|---------------------------------------------------------------------------|
D|---------------------------------------------------------------------------|
A|-5p4-5p4-5p4-5p4--5-7-7----------------------------------------------------|
E|-3p2-3p2-3p2-3p2--3-4-5----------------------------------------------------|
GUITAR2:
e|---------------------------------------------------------------------------|
B|---------------------------------------------------------------------------|
G|---------------------------------------------------------------------------|
D|---------------------------------------------------------------------------|
A|---------------------------------------------------------------------------|
E|-3-2-3-2-3-2-3-2--3-4-5----------------------------------------------------|



GUITAR1:
e|---------------------------------------------------------------------------|
B|---------------------------------------------------------------------------|
G|-------4-------------------4-----------------------------------------------|
D|-2--5--4------------2---5--4------------2----------------------------------|
A|-2--5--2------------2---5--2------------2----------2/9\2-------------------|
E|-0--3-----3-2-0-2-3-0---3-----3-2-0-2-3-0----------------------------------|
GUITAR2:
e|---------------------------------------------------------------------------|
B|-8--12-15---------------8--12-15-------------------------------------------|
G|-9--12-16-12-10-8-10-12-9--12-16-------------------------------------------|
D|---------------------------------12-11-9-11-12-9---------------------------|
A|---------------------------------------------------------------------------|
E|---------------------------------------------------------------------------|


GUITAR1&GUITAR2:
e|---------------------------------|-----------------------------------------|
B|---------------------------------|-----------------------------------------|
G|--------4br-p2---2---------------|-----------------------------------------|
D|-2------------h4---4-2-----------|--2------4br--2--------------------------|
A|-0--0-0----------------2-0-------|--0--0-0--------2-0----------------------|
E|---------------------------2~-0--|--------------------2-0-2~---------------|



GUITAR1&GUITAR2:
e|-----------------------------------------------------------12\-------------|
B|-----------------------------------------------------12--12----------------|
G|-------------------------------------------------/13---13------------------|
D|------------------------------4---------------4----------------------------|
A|-2--------------------2-4-5-7---------2-4-5-7------------------------------|
E|-0--0-0-2-4-5-0-2-4-5-----------2-4-5--------------------------------------|


GUITAR1&GUITAR2:
e|---------------------------------------------------------------------------|
B|---------------------------------------------------------------------------|
G|--------4br-p2---2---------------------------------------------------------|
D|-2------------h4---4-2-----------------------------------------------------|
A|-0--0-0----------------2-0--/7-0-------------------------------------------|(x8)
E|---------------------------------------------------------------------------|


GUITAR1&GUITAR2:
e|---------------------------------------------------------------------------|
B|---------------------------------------------------------------------------|
G|---------------------------------------------------------------------------|
D|---------------------5---------------------5----------------------5--------|
A|--------5-7------5-7----------5-7------5-7-----------5-7------5-7----------|
E|-5--5-7-----5--7-------5--5-7-----5--7--------5--5-7-----5--7--------------|



GUITAR1:
e|---------------------------------------------------------------------------|
B|---------------------------------------------------------------------------|
G|---------------------------------------------------------------------------|
D|-7br-p5----5---------------------------------------------------------------|
A|--------h7---7-5-----------------------------------------------------------|
E|------------------6-0-5-0--3b-0--------------------------------------------|
GUITAR2:
e|---------------------------------------------------------------------------|
B|---------------------------------------------------------------------------|
G|----9----7-----------------------------------------------------------------|
D|-9--7--9-5-9---------------------------------------------------------------|
A|-7-----7---7---------------------------------------------------------------|
E|---------------------------------------------------------------------------|



GUITAR1:
e|---------------------------------------------------------------------------|
B|---------------------------------------------------------------------------|
G|---------------------------------------------------------------------------|
D|---------------------5---------------------5----------------------5--------|
A|--------5-7------5-7----------5-7------5-7-----------5-7------5-7----------|
E|-5--5-7-----5--7-------5--5-7-----5--7--------5--5-7-----5--7--------------|
GUITAR2:
e|---------------------------------------------------------------------------|
B|---------------------------------------------------------------------------|
G|--------------------7--------------------11--------------------------------|
D|-------7-9------7-9---------7-9------7-9----------7-9------7-9-5-----------|
A|-7-7-9-----7--9-------7-7-9-----7--9--------7-7-9-----7--9-----------------|
E|---------------------------------------------------------------------------|



GUITAR1:
e|---------------------------------------------------------------------------|
B|---------------------------------------------------------------------------|
G|---------------------------------------------------------------------------|
D|-7br-p5----5---------------------------------------------------------------|
A|--------h7---7-5-----------------------------------------------------------|
E|------------------6-0-5-0--3b-0--------------------------------------------|
GUITAR2:
e|---------------------------------------------------------------------------|
B|---------------------------------------------------------------------------|
G|-7br-p5----5---------------------------------------------------------------|
D|--------h7--7-5--5-5-4-5---------------------------------------------------|
A|---------------7---------7-------------------------------------------------|
E|---------------------------------------------------------------------------|



GUITAR1&GUITAR2:
e|---------------------------------------------------------------------------|
B|---------------------------------------------------------------------------|
G|2--2-2-2----------2--2-2-2----------2--2-2-2-------------------------------|
D|2--2-2-2----------2--2-2-2----------2--2-2-2-------------2-2-2-------------|
A|0--0-0-0----------0--0-0-0-------3--0--0-0-0-------------2-2-2-------------|
E|---------0-3-0-3-----------0-3-0-------------0-3-0-2-3-0-0-0-0--0-3-0-3-4-5|

************************************

| /   slide up
| \   slide down
| h   hammer-on
| p   pull-off
| ~   vibrato
| +   harmonic
| x   Mute note
| b   Bend
| pb  Pre-bend
| br  Bend release
| pbr Pre-bend release
| brb Bend release bend

************************************
Tap to rate this tab
# A B C D E F G H I J K L M N O P Q R S T U V W X Y Z