Song name
# A B C D E F G H I J K L M N O P Q R S T U V W X Y Z

Andres Calamaro - Sin Documentos I tab

E---------------------------------------------------------------------------|
B---------------------------------------------------------------------------|
G----------4-----------4--------------------------0-10----------------------|
D---------2-2---------2-2------------------5--532---------------------------|
A--333343----333343-------3----33464--43--3---------------------------------|
E---------------------------------------------------------------------------|

E---------------------------------------------------------------------------|
B---------------------------------------------------------------------------|
G----------4-----------4----------------------------------------------------|
D---------2-2---------2-2------------------5--532---------------------------|
A--333343----333343-------3----33464--43--3-------------6 - 8------8 - 6----|
E---------------------------------------------------------10-----------8----|
Tap to rate this tab
# A B C D E F G H I J K L M N O P Q R S T U V W X Y Z