Song name
# A B C D E F G H I J K L M N O P Q R S T U V W X Y Z

Andres Calamaro - Te Quiero Igual tab

      E-------------------|
      B-------------------|
      G-----0-----0-----0-|
      D---2-----0-----0---|
      A-3-----2-----0-----|
      E-------------------|
                                        x2
      E-----------------------------------|------------------|
      B-----------------------------------|------------------|
      G-4-2-4-7-5-4-2-0--0-2-4-5-4--------|---4----4-2---2-0-|
      D-----------------------------0-2-0-|-0---0------0-----|
      A-----------------------------------|------------------|
      E-----------------------------------|------------------|

      E-------------------|
      B-------------------|
      G-----0-----0-----0-|
      D---2-----0-----0---|
      A-3-----2-----0-----|
      E-------------------|


G              D/F#           Em           C
Te quiero pero te llevaste la flor y me dejaste el florero,
         G     D/F#        Em           C
te quiero me dejaste la ceniza y te llevaste el cenicero,
         G     D/F#        Em           C
te quiero pero te llevaste marzo y te rendiste en febrero,

   G       D       G
Primero te quiero igual.

E--------------------------|
B--------------------------|
G-----0-----0----------0---|
D---2-----0----------4---4-|
A-3-----2-----0----5-------|
E--------------------------|


G              D/F#          Em           C
Te quiero , te llevaste la cabeza y me dejaste el sombrero,
         G     D/F#         Em            C
te quiero pero te olvidaste abril en el ropero pero igual,
         G       D/F#    Em           C
te quiero  no me gusta esperar pero igual te espero,

   G       D      G
Primero te quiero igual.

E--------------|
B--------------|
G-----0-----0--|
D---2-----0----|
A-3-----2------|
E--------------|


G             D/F#         Em            C
Te quiero me dejaste el florero y te llevaste la flor pero igual,
         G      D/F#        Em           C
te quiero. me dejaste el vestido y te llevaste el amor,
    G          D/F#          Em           C
te quiero pero te olvidaste abril en el ropero,

   G       D      G
Primero te quiero igual .

E--------------------------|
B--------------------------|
G-----0-----0----------0---|
D---2-----0----------4---4-|
A-3-----2-----0----5-------|
E--------------------------|


C  G     C      G             C       G      D
No sé si estoy despierto o tengo los ojos abiertos
C  G     C      G             C       G      D
No sé si estoy despierto o tengo los ojos abiertos

   G           D/F#            Em            C
Te quiero, no sé si estoy despierto o tengo los ojos abiertos,
G      D/F#               Em      C
sé que te quiero y que me esperan más aeropuertos,
    G         D/F#         Em       C
te quiero te llevaste la vela y me dejaste el entierro,

   G       D      G
Primero te quiero igual.


  G     D/F#   Em        C        x3  G       D     G
E-----------------------------------|------------------|
B-----------------------------------|------------------|
G-4-2-4-7-5-4-2-0--0-2-4-5-4--------|---4----4-2---2-0-|
D-----------------------------0-2-0-|-0---0------0-----|
A-----------------------------------|------------------|
E-----------------------------------|------------------|
 Ahhh…           Ahhhh…


G                        D       C  (mientras toca el piano)


G              D/F#           Em           C
Te quiero pero te llevaste la flor y me dejaste el florero,
         G     D/F#        Em           C
te quiero me dejaste la ceniza y te llevaste el cenicero,
         G     D/F#        Em           C
te quiero pero te llevaste marzo y te rendiste en febrero,

   G       D      G
Primero te quiero igual.
Tap to rate this tab
# A B C D E F G H I J K L M N O P Q R S T U V W X Y Z