Song name
# A B C D E F G H I J K L M N O P Q R S T U V W X Y Z

Andres Cepeda - Me Voy tab

INTRO:


  Em    C    Am    B7    Em      C    Am     B7
E—0------0-----0--------/-0*-0-----0----0-------|
B---0-----1--1--1--3-1--/-0---0--1--1-1--1---3--|
G-----0------2-----2-2--/-0------0----2------2--|  X2
D-----------------------/-2----------------1----|
A-------3----0----2-----/-2------3----0---2-----|
E-0---------------------/-0---------------------|

*es un rasgueo hacia abajo, no todas las notas al mismo tiempo.

Casi toda la canción se puede hacer con este arpegio.


El solo en la mitad de la canción es así:

E-----3---2-0-----------------------------------------------------|
B-0-0---4-----0-3-1-1--0---------------------7-8-7-10-7-8-10------|
G--------------------2-----2-5-4-4-3h4----9-8-9-------------------|
D------------------------4----------------------------------------|
A-----------------------------------------------------------------|
E-----------------------------------------------------------------|

E--7---------------------------------------|
B---8—10p7-8p7-7-----7---------------------|
G----9----8-----9-8-9-8-9~-----------------|
D------------------------------------------|
A------------------------------------------|
E------------------------------------------|


Sacado por: Diego From MIRA.
Tap to rate this tab
 
# A B C D E F G H I J K L M N O P Q R S T U V W X Y Z