Song name
# A B C D E F G H I J K L M N O P Q R S T U V W X Y Z

Andrew Allen - I Want You tab

I LOVE THIS SONG! :)

I was looking for tabs of this song and I couldn't find any so I resorted to Youtube. 
Luckily, Andrew Allen himself made it clear through a live radio performance he did. I did 
my best from the video.

ALL CHORDS ARE RELATIVE TO CAPO :)

-----------------------------------------

STANDARD TUNING

CAPO ON 5TH FRET

-----------------------------------------


VERSES:

e|---X------X------X------X------|
B|---X------X------X------X------|
G|---X------X------X------X------|
D|---X------2------5------4------|
A|---2------3------6------5------|
E|---3------0------0------0------|


CHORUS AND BRIDGE:

e|---3------3------3------2------|
B|---3------3------3------3------|
G|---0------0------0------2------|
D|---0------2------2------X------|
A|---2------3------2------X------|
E|---3------0------0------X------|


Just play around with it. It's basically 8 chords. I'm positive with this tabbing.
PLEASE RATE :) FIRST TAB HERE ON UG.
Tap to rate this tab
# A B C D E F G H I J K L M N O P Q R S T U V W X Y Z