Song name
# A B C D E F G H I J K L M N O P Q R S T U V W X Y Z

Andrew Belle - Reach tab

-------------------------------------------------------------------------------
			                                  Reach - Andrew Belle
-------------------------------------------------------------------------------
Tabbed by: JaredGDstr
Email: jaredrckstr@gmail.com

Tuning: Standard (EADGBE)
Capo: 5


These are the main riffs throughout the song,
You just figure out how many times you play 
Them and the such.

e|----------------------------------|
B|--1---------1-----1---------1-----|
G|--------0---------------0---------|
D|----0-2---2---2-2---0-2---2---2-2-|
A|-3-3-3-3-3-3-3-3-3-3-3-3-3-3-3-3-3|
E|----------------------------------|    


e|----------------------------------|
B|--1---------1-----1---------1-----|
G|--------0---------------0---------|
D|----0-2---2---2-2---0-2---2---2-2-|
A|-0-0-0-0-0-0-0-0-0-0-0-0-0-0-0-0-0|
E|----------------------------------|

(NOTE:
 The best way to play this riff is to keep
 Your hand in the "C" chord formation.)


During the little random build-ups, I think
He plays something like this, but it"s kind 
Of weird, so don"t rely on it too much.


e|--------------|
B|---6--1-5--3--|
G|---5----0-----|
D|--------------|
A|-3~-3~-3~-3~--|
E|--------------|
Tap to rate this tab
 
# A B C D E F G H I J K L M N O P Q R S T U V W X Y Z