Song name
# A B C D E F G H I J K L M N O P Q R S T U V W X Y Z

Andrew Bird - Near Death Experience tab

-------------------------------------------------------------------------------
                             Near Death Experience - Andrew Bird
-------------------------------------------------------------------------------
Tabbed by: The Wurm

Tuning: Standard E



e|--3--2--0-----0----------------------------------------------|
B|-----------0-----4--2-----2--1-------------------------------|
G|-----------------------1--------3-----3--2--0-----0----------|
D|-----------------------------------3-----------0-----4--2----|
A|-----------------------------------------------------------2-|
E|-------------------------------------------------------------|

(cont..)
e|---------------------------------------------------------------------------------------|
B|---------------------------------------------------------------------------------------|
G|----1-----------------------0-----------------------------------------------------0--2-|
D|-2-----4-----4--3--1-----1-----3-----3--2--0-----0--4--2-----2-----------0--2--3-------|
A|----------4-----------1-----------3-----------0-----------2-----0--2--4----------------|
E|---------------------------------------------------------------------------------------|

This is all I have for the verses. Not 100%, I'm actually certain its incorrect but its 
a start. Maybe someone will play my tab and figure out what is wrong and make a better 
one :) Anyways,

e|--1-1--1--1-----3--3-3-3-3-3----3--3-3-3---3-3--3--0-0--0--|
B|--3-3--3--3---2-2--2-2-2-2-2----3--3-3-3---1-1--1--2-2--2--|
G|--2-2--2--2---2-2--2-2-2-2-2----0--0-0-0---2-2--2--0-0--0--|
D|--0-0--0--0---2-2--2-2-2-2-2----3--3-3-3---3-3--3--2-2--2--|
A|--------------0-0--0-0-0-3-3--1-1--1-1-1-----------2-2--2--|
E|-----------------------------------------------------------|

and repeat
Tap to rate this tab
# A B C D E F G H I J K L M N O P Q R S T U V W X Y Z